  0
SECTION
  2
HEADER
  9
$ACADVER
  1
AC1014
  9
$ACADMAINTVER
 70
     5
  9
$DWGCODEPAGE
  3
ANSI_1252
  9
$INSBASE
 10
0.0
 20
0.0
 30
0.0
  9
$EXTMIN
 10
1.000000000000000E+20
 20
1.000000000000000E+20
 30
1.000000000000000E+20
  9
$EXTMAX
 10
-1.000000000000000E+20
 20
-1.000000000000000E+20
 30
-1.000000000000000E+20
  9
$LIMMIN
 10
0.0
 20
0.0
  9
$LIMMAX
 10
12.0
 20
9.0
  9
$ORTHOMODE
 70
     0
  9
$REGENMODE
 70
     1
  9
$FILLMODE
 70
     1
  9
$QTEXTMODE
 70
     0
  9
$MIRRTEXT
 70
     1
  9
$DRAGMODE
 70
     2
  9
$LTSCALE
 40
1.0
  9
$OSMODE
 70
     0
  9
$ATTMODE
 70
     0
  9
$TEXTSIZE
 40
0.8000000000000003
  9
$TRACEWID
 40
0.05
  9
$TEXTSTYLE
  7
STANDARD
  9
$CLAYER
  8
0
  9
$CELTYPE
  6
BYLAYER
  9
$CECOLOR
 62
   256
  9
$CELTSCALE
 40
1.0
  9
$DELOBJ
 70
     1
  9
$DISPSILH
 70
     0
  9
$DIMSCALE
 40
1.0
  9
$DIMASZ
 40
0.18
  9
$DIMEXO
 40
0.0625
  9
$DIMDLI
 40
0.38
  9
$DIMRND
 40
0.0
  9
$DIMDLE
 40
0.0
  9
$DIMEXE
 40
0.18
  9
$DIMTP
 40
0.0
  9
$DIMTM
 40
0.0
  9
$DIMTXT
 40
0.8000000000000003
  9
$DIMCEN
 40
0.09
  9
$DIMTSZ
 40
0.0
  9
$DIMTOL
 70
     0
  9
$DIMLIM
 70
     0
  9
$DIMTIH
 70
     1
  9
$DIMTOH
 70
     1
  9
$DIMSE1
 70
     0
  9
$DIMSE2
 70
     0
  9
$DIMTAD
 70
     0
  9
$DIMZIN
 70
     0
  9
$DIMBLK
  1

  9
$DIMASO
 70
     1
  9
$DIMSHO
 70
     1
  9
$DIMPOST
  1

  9
$DIMAPOST
  1

  9
$DIMALT
 70
     0
  9
$DIMALTD
 70
     2
  9
$DIMALTF
 40
25.4
  9
$DIMLFAC
 40
1.0
  9
$DIMTOFL
 70
     0
  9
$DIMTVP
 40
0.0
  9
$DIMTIX
 70
     0
  9
$DIMSOXD
 70
     0
  9
$DIMSAH
 70
     0
  9
$DIMBLK1
  1

  9
$DIMBLK2
  1

  9
$DIMSTYLE
  2
STANDARD
  9
$DIMCLRD
 70
     0
  9
$DIMCLRE
 70
     0
  9
$DIMCLRT
 70
     0
  9
$DIMTFAC
 40
1.0
  9
$DIMGAP
 40
0.09
  9
$DIMJUST
 70
     0
  9
$DIMSD1
 70
     0
  9
$DIMSD2
 70
     0
  9
$DIMTOLJ
 70
     1
  9
$DIMTZIN
 70
     0
  9
$DIMALTZ
 70
     0
  9
$DIMALTTZ
 70
     0
  9
$DIMFIT
 70
     3
  9
$DIMUPT
 70
     0
  9
$DIMUNIT
 70
     4
  9
$DIMDEC
 70
     0
  9
$DIMTDEC
 70
     4
  9
$DIMALTU
 70
     2
  9
$DIMALTTD
 70
     2
  9
$DIMTXSTY
  7
STANDARD
  9
$DIMAUNIT
 70
     1
  9
$LUNITS
 70
     2
  9
$LUPREC
 70
     5
  9
$SKETCHINC
 40
0.1
  9
$FILLETRAD
 40
0.5
  9
$AUNITS
 70
     3
  9
$AUPREC
 70
     2
  9
$MENU
  1
.
  9
$ELEVATION
 40
0.0
  9
$PELEVATION
 40
0.0
  9
$THICKNESS
 40
0.0
  9
$LIMCHECK
 70
     0
  9
$BLIPMODE
 70
     0
  9
$CHAMFERA
 40
0.25
  9
$CHAMFERB
 40
0.25
  9
$CHAMFERC
 40
0.0
  9
$CHAMFERD
 40
0.0
  9
$SKPOLY
 70
     0
  9
$TDCREATE
 40
0.0000000000
  9
$TDUPDATE
 40
0.0000000000
  9
$TDINDWG
 40
0.0000000000
  9
$TDUSRTIMER
 40
0.0000000000
  9
$USRTIMER
 70
     1
  9
$ANGBASE
 50
0.0
  9
$ANGDIR
 70
     0
  9
$PDMODE
 70
     0
  9
$PDSIZE
 40
0.0
  9
$PLINEWID
 40
0.0
  9
$COORDS
 70
     1
  9
$SPLFRAME
 70
     0
  9
$SPLINETYPE
 70
     6
  9
$SPLINESEGS
 70
     8
  9
$ATTDIA
 70
     0
  9
$ATTREQ
 70
     1
  9
$HANDLING
 70
     1
  9
$HANDSEED
  5
29E
  9
$SURFTAB1
 70
     6
  9
$SURFTAB2
 70
     6
  9
$SURFTYPE
 70
     6
  9
$SURFU
 70
     6
  9
$SURFV
 70
     6
  9
$UCSNAME
  2

  9
$UCSORG
 10
0.0
 20
0.0
 30
0.0
  9
$UCSXDIR
 10
1.0
 20
0.0
 30
0.0
  9
$UCSYDIR
 10
0.0
 20
1.0
 30
0.0
  9
$PUCSNAME
  2

  9
$PUCSORG
 10
0.0
 20
0.0
 30
0.0
  9
$PUCSXDIR
 10
1.0
 20
0.0
 30
0.0
  9
$PUCSYDIR
 10
0.0
 20
1.0
 30
0.0
  9
$USERI1
 70
     0
  9
$USERI2
 70
     0
  9
$USERI3
 70
     0
  9
$USERI4
 70
     0
  9
$USERI5
 70
     0
  9
$USERR1
 40
0.0
  9
$USERR2
 40
0.0
  9
$USERR3
 40
0.0
  9
$USERR4
 40
0.0
  9
$USERR5
 40
0.0
  9
$WORLDVIEW
 70
     1
  9
$SHADEDGE
 70
     3
  9
$SHADEDIF
 70
    70
  9
$TILEMODE
 70
     1
  9
$MAXACTVP
 70
    48
  9
$PINSBASE
 10
0.0
 20
0.0
 30
0.0
  9
$PLIMCHECK
 70
     0
  9
$PEXTMIN
 10
1.000000000000000E+20
 20
1.000000000000000E+20
 30
1.000000000000000E+20
  9
$PEXTMAX
 10
-1.000000000000000E+20
 20
-1.000000000000000E+20
 30
-1.000000000000000E+20
  9
$PLIMMIN
 10
0.0
 20
0.0
  9
$PLIMMAX
 10
12.0
 20
9.0
  9
$UNITMODE
 70
     0
  9
$VISRETAIN
 70
     1
  9
$PLINEGEN
 70
     0
  9
$PSLTSCALE
 70
     1
  9
$TREEDEPTH
 70
  3020
  9
$PICKSTYLE
 70
     1
  9
$CMLSTYLE
  2
STANDARD
  9
$CMLJUST
 70
     0
  9
$CMLSCALE
 40
1.0
  9
$PROXYGRAPHICS
 70
     1
  9
$MEASUREMENT
 70
     0
  0
ENDSEC
  0
SECTION
  2
CLASSES
  0
CLASS
  1
LWPOLYLINE
  2
AcDbPolyline
  3
"AutoCAD"
 90
        0
280
     0
281
     1
  0
CLASS
  1
HATCH
  2
AcDbHatch
  3
"ACAD_SEDONA"
 90
        0
280
     0
281
     1
  0
ENDSEC
  0
SECTION
  2
TABLES
  0
TABLE
  2
VPORT
  5
8
100
AcDbSymbolTable
 70
     1
  0
VPORT
  5
11
100
AcDbSymbolTableRecord
100
AcDbViewportTableRecord
  2
*ACTIVE
 70
     0
 10
0.0
 20
0.0
 11
1.0
 21
1.0
 12
3.6
 22
4.5
 13
0.0
 23
0.0
 14
1.0
 24
1.0
 15
0.0
 25
0.0
 16
0.0
 26
0.0
 36
1.0
 17
0.0
 27
0.0
 37
0.0
 40
15.0
 41
0.8
 42
50.0
 43
0.0
 44
0.0
 50
0.0
 51
0.0
 71
     0
 72
   100
 73
     1
 74
     1
 75
     0
 76
     0
 77
     0
 78
     0
  0
ENDTAB
  0
TABLE
  2
LTYPE
  5
5
100
AcDbSymbolTable
 70
    40
  0
LTYPE
  5
12
100
AcDbSymbolTableRecord
100
AcDbLinetypeTableRecord
  2
BYBLOCK
 70
     0
  3

 72
    65
 73
     0
 40
0.0
  0
LTYPE
  5
13
100
AcDbSymbolTableRecord
100
AcDbLinetypeTableRecord
  2
BYLAYER
 70
     0
  3

 72
    65
 73
     0
 40
0.0
  0
LTYPE
  5
14
100
AcDbSymbolTableRecord
100
AcDbLinetypeTableRecord
  2
CONTINUOUS
 70
     0
  3
Solid line
 72
    65
 73
     0
 40
0.0
  0
LTYPE
  5
1E
100
AcDbSymbolTableRecord
100
AcDbLinetypeTableRecord
  2
HIDDEN
 70
     0
  3
_ _ _ _ _ _ _ _ _ _ _ _ _ _ 
 72
    65
 73
     2
 40
0.375
 49
0.25
 74
     0
 49
-0.125
 74
     0
  0
LTYPE
  5
1F
100
AcDbSymbolTableRecord
100
AcDbLinetypeTableRecord
  2
DASHED
 70
     0
  3
__ __ __ __ __ __ __ __ __ 
 72
    65
 73
     2
 40
0.75
 49
0.5
 74
     0
 49
-0.25
 74
     0
  0
LTYPE
  5
20
100
AcDbSymbolTableRecord
100
AcDbLinetypeTableRecord
  2
CENTER
 70
     0
  3
____ _ ____ _ ____ _ ____ _ 
 72
    65
 73
     4
 40
2.0
 49
1.25
 74
     0
 49
-0.25
 74
     0
 49
0.25
 74
     0
 49
-0.25
 74
     0
  0
LTYPE
  5
21
100
AcDbSymbolTableRecord
100
AcDbLinetypeTableRecord
  2
PHANTOM
 70
     0
  3
_____ _ _ _____ _ _ _____ _ _ 
 72
    65
 73
     6
 40
2.5
 49
1.25
 74
     0
 49
-0.25
 74
     0
 49
0.25
 74
     0
 49
-0.25
 74
     0
 49
0.25
 74
     0
 49
-0.25
 74
     0
  0
LTYPE
  5
22
100
AcDbSymbolTableRecord
100
AcDbLinetypeTableRecord
  2
DOT
 70
     0
  3
...........................
 72
    65
 73
     2
 40
0.25
 49
0.0
 74
     0
 49
-0.25
 74
     0
  0
LTYPE
  5
23
100
AcDbSymbolTableRecord
100
AcDbLinetypeTableRecord
  2
DASHDOT
 70
     0
  3
__ . __ . __ . __ . __ . __ . 
 72
    65
 73
     4
 40
1.0
 49
0.5
 74
     0
 49
-0.25
 74
     0
 49
0.0
 74
     0
 49
-0.25
 74
     0
  0
LTYPE
  5
24
100
AcDbSymbolTableRecord
100
AcDbLinetypeTableRecord
  2
DIVIDE
 70
     0
  3
__ . . __ . . __ . . __ . . 
 72
    65
 73
     6
 40
1.25
 49
0.5
 74
     0
 49
-0.25
 74
     0
 49
0.0
 74
     0
 49
-0.25
 74
     0
 49
0.0
 74
     0
 49
-0.25
 74
     0
  0
LTYPE
  5
25
100
AcDbSymbolTableRecord
100
AcDbLinetypeTableRecord
  2
BORDER
 70
     0
  3
__ __ . __ __ . __ __ . __ __ .
 72
    65
 73
     6
 40
1.75
 49
0.5
 74
     0
 49
-0.25
 74
     0
 49
0.5
 74
     0
 49
-0.25
 74
     0
 49
0.0
 74
     0
 49
-0.25
 74
     0
  0
LTYPE
  5
26
100
AcDbSymbolTableRecord
100
AcDbLinetypeTableRecord
  2
BORDER2
 70
     0
  3
Border (.5x) __.__.__.__.__.__.
 72
    65
 73
     6
 40
0.875
 49
0.25
 74
     0
 49
-0.125
 74
     0
 49
0.25
 74
     0
 49
-0.125
 74
     0
 49
0.0
 74
     0
 49
-0.125
 74
     0
  0
LTYPE
  5
27
100
AcDbSymbolTableRecord
100
AcDbLinetypeTableRecord
  2
BORDERX2
 70
     0
  3
Border (2x) ____  ____  .  ____
 72
    65
 73
     6
 40
3.5
 49
1.0
 74
     0
 49
-0.5
 74
     0
 49
1.0
 74
     0
 49
-0.5
 74
     0
 49
0.0
 74
     0
 49
-0.5
 74
     0
  0
LTYPE
  5
28
100
AcDbSymbolTableRecord
100
AcDbLinetypeTableRecord
  2
CENTER2
 70
     0
  3
Center (.5x) ___ _ ___ _ ___ _ 
 72
    65
 73
     4
 40
1.125
 49
0.7500000000000001
 74
     0
 49
-0.125
 74
     0
 49
0.125
 74
     0
 49
-0.125
 74
     0
  0
LTYPE
  5
29
100
AcDbSymbolTableRecord
100
AcDbLinetypeTableRecord
  2
CENTERX2
 70
     0
  3
Center (2x) ________  __  _____
 72
    65
 73
     4
 40
4.0
 49
2.5
 74
     0
 49
-0.5
 74
     0
 49
0.5
 74
     0
 49
-0.5
 74
     0
  0
LTYPE
  5
2A
100
AcDbSymbolTableRecord
100
AcDbLinetypeTableRecord
  2
DASHDOT2
 70
     0
  3
Dash dot (.5x) _._._._._._._._.
 72
    65
 73
     4
 40
0.5
 49
0.25
 74
     0
 49
-0.125
 74
     0
 49
0.0
 74
     0
 49
-0.125
 74
     0
  0
LTYPE
  5
2B
100
AcDbSymbolTableRecord
100
AcDbLinetypeTableRecord
  2
DASHDOTX2
 70
     0
  3
Dash dot (2x) ____  .  ____  . 
 72
    65
 73
     4
 40
2.0
 49
1.0
 74
     0
 49
-0.5
 74
     0
 49
0.0
 74
     0
 49
-0.5
 74
     0
  0
LTYPE
  5
2C
100
AcDbSymbolTableRecord
100
AcDbLinetypeTableRecord
  2
DASHED2
 70
     0
  3
Dashed (.5x) _ _ _ _ _ _ _ _ _ 
 72
    65
 73
     2
 40
0.375
 49
0.25
 74
     0
 49
-0.125
 74
     0
  0
LTYPE
  5
2D
100
AcDbSymbolTableRecord
100
AcDbLinetypeTableRecord
  2
DASHEDX2
 70
     0
  3
Dashed (2x) ____  ____  ____  _
 72
    65
 73
     2
 40
1.5
 49
1.0
 74
     0
 49
-0.5
 74
     0
  0
LTYPE
  5
2E
100
AcDbSymbolTableRecord
100
AcDbLinetypeTableRecord
  2
DIVIDE2
 70
     0
  3
Divide (.5x) __..__..__..__..__
 72
    65
 73
     6
 40
0.625
 49
0.25
 74
     0
 49
-0.125
 74
     0
 49
0.0
 74
     0
 49
-0.125
 74
     0
 49
0.0
 74
     0
 49
-0.125
 74
     0
  0
LTYPE
  5
2F
100
AcDbSymbolTableRecord
100
AcDbLinetypeTableRecord
  2
DIVIDEX2
 70
     0
  3
Divide (2x) ________  .  .  ___
 72
    65
 73
     6
 40
2.5
 49
1.0
 74
     0
 49
-0.5
 74
     0
 49
0.0
 74
     0
 49
-0.5
 74
     0
 49
0.0
 74
     0
 49
-0.5
 74
     0
  0
LTYPE
  5
30
100
AcDbSymbolTableRecord
100
AcDbLinetypeTableRecord
  2
DOT2
 70
     0
  3
Dot (.5x) .....................
 72
    65
 73
     2
 40
0.125
 49
0.0
 74
     0
 49
-0.125
 74
     0
  0
LTYPE
  5
31
100
AcDbSymbolTableRecord
100
AcDbLinetypeTableRecord
  2
DOTX2
 70
     0
  3
Dot (2x) .  .  .  .  .  .  .  .
 72
    65
 73
     2
 40
0.5
 49
0.0
 74
     0
 49
-0.5
 74
     0
  0
LTYPE
  5
32
100
AcDbSymbolTableRecord
100
AcDbLinetypeTableRecord
  2
HIDDEN2
 70
     0
  3
Hidden (.5x) _ _ _ _ _ _ _ _ _ 
 72
    65
 73
     2
 40
0.1875
 49
0.125
 74
     0
 49
-0.0625
 74
     0
  0
LTYPE
  5
33
100
AcDbSymbolTableRecord
100
AcDbLinetypeTableRecord
  2
HIDDENX2
 70
     0
  3
Hidden (2x) ____ ____ ____ ____
 72
    65
 73
     2
 40
0.75
 49
0.5
 74
     0
 49
-0.25
 74
     0
  0
LTYPE
  5
34
100
AcDbSymbolTableRecord
100
AcDbLinetypeTableRecord
  2
PHANTOM2
 70
     0
  3
Phantom (.5x) ___ _ _ ___ _ _ _
 72
    65
 73
     6
 40
1.25
 49
0.6250000000000001
 74
     0
 49
-0.125
 74
     0
 49
0.125
 74
     0
 49
-0.125
 74
     0
 49
0.125
 74
     0
 49
-0.125
 74
     0
  0
LTYPE
  5
35
100
AcDbSymbolTableRecord
100
AcDbLinetypeTableRecord
  2
PHANTOMX2
 70
     0
  3
Phantom (2x) ____________    __
 72
    65
 73
     6
 40
5.0
 49
2.5
 74
     0
 49
-0.5
 74
     0
 49
0.5
 74
     0
 49
-0.5
 74
     0
 49
0.5
 74
     0
 49
-0.5
 74
     0
  0
LTYPE
  5
36
100
AcDbSymbolTableRecord
100
AcDbLinetypeTableRecord
  2
DOTS
 70
     0
  3
Dots - - - - - - - - - - - - - 
 72
    65
 73
     2
 40
0.1
 49
0.05
 74
     0
 49
-0.05
 74
     0
  0
LTYPE
  5
37
100
AcDbSymbolTableRecord
100
AcDbLinetypeTableRecord
  2
ACAD_ISO02W100
 70
     0
  3
__ __ __ __ __ __ __ __ __ __ _
 72
    65
 73
     2
 40
15.0
 49
12.0
 74
     0
 49
-3.0
 74
     0
  0
LTYPE
  5
38
100
AcDbSymbolTableRecord
100
AcDbLinetypeTableRecord
  2
ACAD_ISO03W100
 70
     0
  3
__    __    __    __    __    _
 72
    65
 73
     2
 40
30.0
 49
12.0
 74
     0
 49
-18.0
 74
     0
  0
LTYPE
  5
39
100
AcDbSymbolTableRecord
100
AcDbLinetypeTableRecord
  2
ACAD_ISO04W100
 70
     0
  3
____ . ____ . ____ . ____ . ___
 72
    65
 73
     4
 40
30.5
 49
24.0
 74
     0
 49
-3.0
 74
     0
 49
0.5
 74
     0
 49
-3.0
 74
     0
  0
LTYPE
  5
3A
100
AcDbSymbolTableRecord
100
AcDbLinetypeTableRecord
  2
ACAD_ISO05W100
 70
     0
  3
____ .. ____ .. ____ .. ____ ..
 72
    65
 73
     6
 40
34.0
 49
24.0
 74
     0
 49
-3.0
 74
     0
 49
0.5
 74
     0
 49
-3.0
 74
     0
 49
0.5
 74
     0
 49
-3.0
 74
     0
  0
LTYPE
  5
3B
100
AcDbSymbolTableRecord
100
AcDbLinetypeTableRecord
  2
ACAD_ISO06W100
 70
     0
  3
____ ... ____ ... ____ ... ____
 72
    65
 73
     6
 40
34.0
 49
24.0
 74
     0
 49
-3.0
 74
     0
 49
0.5
 74
     0
 49
-3.0
 74
     0
 49
0.5
 74
     0
 49
-3.0
 74
     0
  0
LTYPE
  5
3C
100
AcDbSymbolTableRecord
100
AcDbLinetypeTableRecord
  2
ACAD_ISO07W100
 70
     0
  3
. . . . . . . . . . . . . . . .
 72
    65
 73
     2
 40
3.5
 49
0.5
 74
     0
 49
-3.0
 74
     0
  0
LTYPE
  5
3D
100
AcDbSymbolTableRecord
100
AcDbLinetypeTableRecord
  2
ACAD_ISO08W100
 70
     0
  3
____ __ ____ __ ____ __ ____ __
 72
    65
 73
     4
 40
36.0
 49
24.0
 74
     0
 49
-3.0
 74
     0
 49
6.0
 74
     0
 49
-3.0
 74
     0
  0
LTYPE
  5
3E
100
AcDbSymbolTableRecord
100
AcDbLinetypeTableRecord
  2
ACAD_ISO09W100
 70
     0
  3
____ __ __ ____ __ __ ____ __ _
 72
    65
 73
     6
 40
45.0
 49
24.0
 74
     0
 49
-3.0
 74
     0
 49
6.0
 74
     0
 49
-3.0
 74
     0
 49
6.0
 74
     0
 49
-3.0
 74
     0
  0
LTYPE
  5
3F
100
AcDbSymbolTableRecord
100
AcDbLinetypeTableRecord
  2
ACAD_ISO10W100
 70
     0
  3
__ . __ . __ . __ . __ . __ . _
 72
    65
 73
     4
 40
18.5
 49
12.0
 74
     0
 49
-3.0
 74
     0
 49
0.5
 74
     0
 49
-3.0
 74
     0
  0
LTYPE
  5
40
100
AcDbSymbolTableRecord
100
AcDbLinetypeTableRecord
  2
ACAD_ISO11W100
 70
     0
  3
__ __ . __ __ . __ __ . __ __ .
 72
    65
 73
     6
 40
33.5
 49
12.0
 74
     0
 49
-3.0
 74
     0
 49
12.0
 74
     0
 49
-3.0
 74
     0
 49
0.5
 74
     0
 49
-3.0
 74
     0
  0
LTYPE
  5
41
100
AcDbSymbolTableRecord
100
AcDbLinetypeTableRecord
  2
ACAD_ISO12W100
 70
     0
  3
__ . . __ . . __ . . __ . . __ 
 72
    65
 73
     6
 40
22.0
 49
12.0
 74
     0
 49
-3.0
 74
     0
 49
0.5
 74
     0
 49
-3.0
 74
     0
 49
0.5
 74
     0
 49
-3.0
 74
     0
  0
LTYPE
  5
42
100
AcDbSymbolTableRecord
100
AcDbLinetypeTableRecord
  2
ACAD_ISO13W100
 70
     0
  3
__ __ . . __ __ . . __ __ . . _
 72
    65
 73
     6
 40
33.5
 49
12.0
 74
     0
 49
-3.0
 74
     0
 49
12.0
 74
     0
 49
-3.0
 74
     0
 49
0.5
 74
     0
 49
-3.0
 74
     0
  0
LTYPE
  5
43
100
AcDbSymbolTableRecord
100
AcDbLinetypeTableRecord
  2
ACAD_ISO14W100
 70
     0
  3
__ . . . __ . . . __ . . . __ .
 72
    65
 73
     6
 40
22.0
 49
12.0
 74
     0
 49
-3.0
 74
     0
 49
0.5
 74
     0
 49
-3.0
 74
     0
 49
0.5
 74
     0
 49
-3.0
 74
     0
  0
LTYPE
  5
44
100
AcDbSymbolTableRecord
100
AcDbLinetypeTableRecord
  2
ACAD_ISO15W100
 70
     0
  3
__ __ . . . __ __ . . . __ __ .
 72
    65
 73
     6
 40
33.5
 49
12.0
 74
     0
 49
-3.0
 74
     0
 49
12.0
 74
     0
 49
-3.0
 74
     0
 49
0.5
 74
     0
 49
-3.0
 74
     0
  0
ENDTAB
  0
TABLE
  2
LAYER
  5
2
100
AcDbSymbolTable
 70
     4
  0
LAYER
  5
E
100
AcDbSymbolTableRecord
100
AcDbLayerTableRecord
  2
0
 70
     0
 62
     7
  6
CONTINUOUS
  0
LAYER
  5
45
100
AcDbSymbolTableRecord
100
AcDbLayerTableRecord
  2
COMMON
 70
     0
 62
     7
  6
CONTINUOUS
  0
LAYER
  5
46
100
AcDbSymbolTableRecord
100
AcDbLayerTableRecord
  2
LACOSTE
 70
     0
 62
     7
  6
CONTINUOUS
  0
LAYER
  5
47
100
AcDbSymbolTableRecord
100
AcDbLayerTableRecord
  2
STM-8
 70
     0
 62
     7
  6
CONTINUOUS
  0
ENDTAB
  0
TABLE
  2
STYLE
  5
3
100
AcDbSymbolTable
 70
     6
  0
STYLE
  5
F
100
AcDbSymbolTableRecord
100
AcDbTextStyleTableRecord
  2
STANDARD
 70
     0
 40
0.0
 41
1.0
 50
0.0
 71
     0
 42
0.8000000000000003
  3
txt
  4

  0
STYLE
  5
48
100
AcDbSymbolTableRecord
100
AcDbTextStyleTableRecord
  2
ITALIC
 70
     0
 40
0.0
 41
1.0
 50
0.0
 71
     0
 42
0.8000000000000003
  3
ITALIC
  4

  0
STYLE
  5
49
100
AcDbSymbolTableRecord
100
AcDbTextStyleTableRecord
  2
SIMPLEX
 70
     0
 40
0.0
 41
1.0
 50
0.0
 71
     0
 42
0.8000000000000003
  3
SIMPLEX
  4

  0
STYLE
  5
4A
100
AcDbSymbolTableRecord
100
AcDbTextStyleTableRecord
  2
COMPLEX
 70
     0
 40
0.0
 41
1.0
 50
0.0
 71
     0
 42
0.8000000000000003
  3
COMPLEX
  4

  0
STYLE
  5
51
100
AcDbSymbolTableRecord
100
AcDbTextStyleTableRecord
  2
ARIAL
 70
     0
 40
0.0
 41
1.0
 50
0.0
 71
     0
 42
0.8000000000000003
  3
ARIAL.TTF
  4

1001
ACAD
1000
Arial
1071
        0
  0
STYLE
  5
6E
100
AcDbSymbolTableRecord
100
AcDbTextStyleTableRecord
  2
SYMBOLB
 70
     0
 40
0.0
 41
1.0
 50
0.0
 71
     0
 42
0.8000000000000003
  3

  4

1001
ACAD
1000
Symbol
1071
 33554944
  0
ENDTAB
  0
TABLE
  2
VIEW
  5
6
100
AcDbSymbolTable
 70
     0
  0
ENDTAB
  0
TABLE
  2
UCS
  5
7
100
AcDbSymbolTable
 70
     0
  0
ENDTAB
  0
TABLE
  2
APPID
  5
9
100
AcDbSymbolTable
 70
     1
  0
APPID
  5
10
100
AcDbSymbolTableRecord
100
AcDbRegAppTableRecord
  2
ACAD
 70
     0
  0
ENDTAB
  0
TABLE
  2
DIMSTYLE
  5
A
100
AcDbSymbolTable
 70
     1
  0
DIMSTYLE
105
1D
100
AcDbSymbolTableRecord
100
AcDbDimStyleTableRecord
  2
STANDARD
 70
     0
  3

  4

  5

  6

  7

 40
1.0
 41
0.18
 42
0.0625
 43
0.38
 44
0.18
 45
0.0
 46
0.0
 47
0.0
 48
0.0
140
0.18
141
0.09
142
0.0
143
25.4
144
1.0
145
0.0
146
1.0
147
0.09
 71
     0
 72
     0
 73
     1
 74
     1
 75
     0
 76
     0
 77
     0
 78
     0
170
     0
171
     2
172
     0
173
     0
174
     0
175
     0
176
     0
177
     0
178
     0
270
     2
271
     4
272
     4
273
     2
274
     2
340
F
275
     0
280
     0
281
     0
282
     0
283
     1
284
     0
285
     0
286
     0
287
     3
288
     0
  0
ENDTAB
  0
TABLE
  2
BLOCK_RECORD
  5
1
100
AcDbSymbolTable
 70
     1
  0
BLOCK_RECORD
  5
18
100
AcDbSymbolTableRecord
100
AcDbBlockTableRecord
  2
*MODEL_SPACE
  0
BLOCK_RECORD
  5
15
100
AcDbSymbolTableRecord
100
AcDbBlockTableRecord
  2
*PAPER_SPACE
  0
BLOCK_RECORD
  5
4B
100
AcDbSymbolTableRecord
100
AcDbBlockTableRecord
  2
LONGARROW
  0
ENDTAB
  0
ENDSEC
  0
SECTION
  2
BLOCKS
  0
BLOCK
  5
19
100
AcDbEntity
  8
0
100
AcDbBlockBegin
  2
*MODEL_SPACE
 70
     0
 10
0.0
 20
0.0
 30
0.0
  3
*MODEL_SPACE
  1

  0
ENDBLK
  5
1A
100
AcDbEntity
  8
0
100
AcDbBlockEnd
  0
BLOCK
  5
16
100
AcDbEntity
 67
     1
  8
0
100
AcDbBlockBegin
  2
*PAPER_SPACE
 70
     0
 10
0.0
 20
0.0
 30
0.0
  3
*PAPER_SPACE
  1

  0
ENDBLK
  5
17
100
AcDbEntity
 67
     1
  8
0
100
AcDbBlockEnd
  0
BLOCK
  5
4E
100
AcDbEntity
  8
0
100
AcDbBlockBegin
  2
LONGARROW
 70
     0
 10
0.0
 20
0.0
 30
0.0
  3
LONGARROW
  1

  0
LWPOLYLINE
  5
4C
102
{ACAD_REACTORS
330
4D
102
}
100
AcDbEntity
  8
COMMON
  6
CONTINUOUS
 62
     0
100
AcDbPolyline
 90
        3
 70
     1
 43
0.0
 10
0.0
 20
0.0
 10
2.0
 20
-0.25
 10
2.0
 20
0.25
  0
HATCH
  5
4D
100
AcDbEntity
  8
COMMON
  6
CONTINUOUS
 62
     0
100
AcDbHatch
 10
0.0
 20
0.0
 30
0.0
210
0.0
220
0.0
230
1.0
  2
SOLID
 70
     1
 71
     1
 91
        1
 92
        1
 93
        3
 72
     1
 10
0.0
 20
0.0
 11
2.0
 21
-0.25
 72
     1
 10
2.0
 20
-0.25
 11
2.0
 21
0.25
 72
     1
 10
2.0
 20
0.25
 11
0.0
 21
0.0
 97
        1
330
4C
 75
     0
 76
     1
 98
        1
 10
0.0
 20
0.0
  0
ENDBLK
  5
4F
100
AcDbEntity
  8
0
100
AcDbBlockEnd
  0
ENDSEC
  0
SECTION
  2
ENTITIES
  0
INSERT
  5
50
100
AcDbEntity
  8
STM-8
  6
CONTINUOUS
 62
     7
100
AcDbBlockReference
  2
LONGARROW
 10
1.999999999999999
 20
1.744589075108628
 30
0.0
 41
0.25
 42
0.25
  0
TEXT
  5
52
100
AcDbEntity
  8
STM-8
  6
CONTINUOUS
 62
     7
100
AcDbText
 10
7.535819999999922
 20
1.363746585971363
 30
0.0
 40
0.8000000000000001
  1
c
 41
0.6000000000000001
  7
ARIAL
 72
     1
 11
7.687499999999921
 21
1.763746585971363
 31
0.0
100
AcDbText
 73
     2
  0
LINE
  5
53
100
AcDbEntity
  8
STM-8
  6
CONTINUOUS
 62
     7
100
AcDbLine
 10
12.99999999999996
 20
1.744589075108628
 30
0.0
 11
8.294399999999983
 21
1.744589075108628
 31
0.0
  0
LINE
  5
54
100
AcDbEntity
  8
STM-8
  6
CONTINUOUS
 62
     7
100
AcDbLine
 10
12.99999999999996
 20
2.799999999999999
 30
0.0
 11
12.99999999999997
 21
0.55
 31
0.0
  0
LINE
  5
55
100
AcDbEntity
  8
STM-8
  6
CONTINUOUS
 62
     7
100
AcDbLine
 10
2.0
 20
2.799999999999999
 30
0.0
 11
2.0
 21
0.55
 31
0.0
  0
CIRCLE
  5
56
100
AcDbEntity
  8
STM-8
  6
CONTINUOUS
 62
     7
100
AcDbCircle
 10
13.0
 20
3.0
 30
0.0
 40
0.05
  0
LINE
  5
57
100
AcDbEntity
  8
LACOSTE
  6
CONTINUOUS
100
AcDbLine
 10
2.209892539288037
 20
20.13581281953932
 30
0.0
 11
4.098925392880367
 21
21.35812819539318
 31
0.0
  0
LINE
  5
58
100
AcDbEntity
  8
LACOSTE
  6
CONTINUOUS
100
AcDbLine
 10
8.798434205954707
 20
9.953521152872653
 30
0.0
 11
10.68746705954703
 21
11.17583652872651
 31
0.0
  0
LINE
  5
59
100
AcDbEntity
  8
LACOSTE
  6
CONTINUOUS
100
AcDbLine
 10
3.679140314304293
 20
21.08650255631454
 30
0.0
 11
6.730764088814098
 21
16.37035672298121
 31
0.0
  0
LINE
  5
5A
100
AcDbEntity
  8
LACOSTE
  6
CONTINUOUS
100
AcDbLine
 10
10.26768198097095
 20
10.90421088964788
 30
0.0
 11
7.216058206461154
 21
15.62035672298121
 31
0.0
  0
INSERT
  5
5B
100
AcDbEntity
  8
LACOSTE
  6
CONTINUOUS
100
AcDbBlockReference
  2
LONGARROW
 10
3.679140314304293
 20
21.08650255631454
 30
0.0
 41
0.25
 42
0.25
 50
302.9052429229878
  0
INSERT
  5
5C
100
AcDbEntity
  8
LACOSTE
  6
CONTINUOUS
100
AcDbBlockReference
  2
LONGARROW
 10
10.26768198097095
 20
10.90421088964788
 30
0.0
 41
0.25
 42
0.25
 50
122.9052429229879
  0
TEXT
  5
5D
100
AcDbEntity
  8
LACOSTE
  6
CONTINUOUS
100
AcDbText
 10
6.831353196772188
 20
15.58710055865921
 30
0.0
 40
0.8
  1
r
 41
0.6
  7
ARIAL
 11
6.831353196772188
 21
15.58710055865921
 31
0.0
100
AcDbText
 73
     1
  0
LINE
  5
5E
100
AcDbEntity
  8
LACOSTE
  6
CONTINUOUS
 62
     7
100
AcDbLine
 10
2.049029033784545
 20
8.25485483107727
 30
0.0
 11
2.772207282106609
 21
4.638963589466965
 31
0.0
  0
LINE
  5
5F
100
AcDbEntity
  8
LACOSTE
  6
CONTINUOUS
 62
     7
100
AcDbLine
 10
2.674149214537518
 20
5.129253927312425
 30
0.0
 11
8.145175925768651
 21
6.223459269558651
 31
0.0
  0
LINE
  5
60
100
AcDbEntity
  8
LACOSTE
  6
CONTINUOUS
 62
     7
100
AcDbLine
 10
15.17414921453752
 20
7.629253927312426
 30
0.0
 11
9.703122503306385
 21
6.535048585066198
 31
0.0
  0
INSERT
  5
61
100
AcDbEntity
  8
LACOSTE
  6
CONTINUOUS
 62
     7
100
AcDbBlockReference
  2
LONGARROW
 10
2.674149214537518
 20
5.129253927312425
 30
0.0
 41
0.2499999999999997
 42
0.2499999999999997
 50
11.30993247402021
  0
INSERT
  5
62
100
AcDbEntity
  8
LACOSTE
  6
CONTINUOUS
 62
     7
100
AcDbBlockReference
  2
LONGARROW
 10
15.17414921453752
 20
7.629253927312426
 30
0.0
 41
0.25
 42
0.25
 50
191.30993247402
  0
LINE
  5
63
100
AcDbEntity
  8
LACOSTE
  6
CONTINUOUS
 62
     7
100
AcDbLine
 10
2.309177341351849
 20
6.954113293240752
 30
0.0
 11
4.824474885916316
 21
7.457172802153646
 31
0.0
  0
LINE
  5
64
100
AcDbEntity
  8
LACOSTE
  6
CONTINUOUS
 62
     7
100
AcDbLine
 10
8.897719008018519
 20
8.271821626574086
 30
0.0
 11
6.382421463454052
 21
7.768762117661193
 31
0.0
  0
INSERT
  5
65
100
AcDbEntity
  8
LACOSTE
  6
CONTINUOUS
 62
     7
100
AcDbBlockReference
  2
LONGARROW
 10
2.309177341351849
 20
6.954113293240752
 30
0.0
 41
0.25
 42
0.25
 50
11.3099324740202
  0
INSERT
  5
66
100
AcDbEntity
  8
LACOSTE
  6
CONTINUOUS
 62
     7
100
AcDbBlockReference
  2
LONGARROW
 10
8.897719008018519
 20
8.271821626574086
 30
0.0
 41
0.25
 42
0.25
 50
191.3099324740199
  0
TEXT
  5
67
100
AcDbEntity
  8
LACOSTE
  6
CONTINUOUS
 62
     7
100
AcDbText
 10
5.443005873773222
 20
7.234769358631843
 30
0.0
 40
0.8000000000000001
  1
b
 41
0.6000000000000001
  7
ARIAL
 11
5.443005873773222
 21
7.234769358631843
 31
0.0
100
AcDbText
 73
     1
  0
TEXT
  5
68
100
AcDbEntity
  8
LACOSTE
  6
CONTINUOUS
 62
     7
100
AcDbText
 10
8.839968081936607
 20
6.037803382991847
 30
0.0
 40
0.8000000000000001
  1
d
 41
0.6000000000000001
  7
ARIAL
 72
     1
 11
8.990688081936607
 21
6.437803382991847
 31
0.0
100
AcDbText
 73
     2
  0
LINE
  5
69
100
AcDbEntity
  8
LACOSTE
  6
CONTINUOUS
 62
     7
100
AcDbLine
 10
8.720273779312863
 20
9.159047770102356
 30
0.0
 11
9.035226998134564
 21
7.584281675993889
 31
0.0
  0
LINE
  5
6A
100
AcDbEntity
  8
LACOSTE
  6
CONTINUOUS
 62
     7
100
AcDbLine
 10
14.72373983675098
 20
9.881300816245047
 30
0.0
 11
15.27220728210661
 21
7.138963589466964
 31
0.0
  0
ARC
  5
6B
100
AcDbEntity
  8
COMMON
  6
CONTINUOUS
 62
     7
100
AcDbCircle
 10
2.0
 20
20.0
 30
0.0
 40
3.456521859233513
100
AcDbArc
 50
257.5678973300806
 51
270.0
  0
INSERT
  5
6C
100
AcDbEntity
  8
COMMON
  6
CONTINUOUS
 62
     7
100
AcDbBlockReference
  2
LONGARROW
 10
2.000000000000002
 20
16.54347814076649
 30
0.0
 41
0.25
 42
0.25
 50
175.8559657766935
  0
INSERT
  5
6D
100
AcDbEntity
  8
COMMON
  6
CONTINUOUS
 62
     7
100
AcDbBlockReference
  2
LONGARROW
 10
3.877759918007164
 20
17.09800739944347
 30
0.0
 41
0.25
 42
0.25
 50
37.04927714629447
  0
TEXT
  5
6F
100
AcDbEntity
  8
COMMON
  6
CONTINUOUS
 62
     7
100
AcDbText
 10
2.606743699565407
 20
16.24611002482921
 30
0.0
 40
0.8000000000000001
  1
b
 41
0.8
  7
SYMBOLB
 11
2.606743699565407
 21
16.24611002482921
 31
0.0
100
AcDbText
 73
     1
  0
ARC
  5
70
100
AcDbEntity
  8
LACOSTE
  6
CONTINUOUS
 62
     7
100
AcDbCircle
 10
2.0
 20
8.5
 30
0.0
 40
2.534202109906393
100
AcDbArc
 50
11.3099324740202
 51
29.25806034556706
  0
ARC
  5
71
100
AcDbEntity
  8
LACOSTE
  6
CONTINUOUS
 62
     7
100
AcDbCircle
 10
2.0
 20
8.5
 30
0.0
 40
2.534202109906393
100
AcDbArc
 50
72.05187212845321
 51
90.00000000000005
  0
INSERT
  5
72
100
AcDbEntity
  8
LACOSTE
  6
CONTINUOUS
 62
     7
100
AcDbBlockReference
  2
LONGARROW
 10
4.484989617269366
 20
8.996997923453871
 30
0.0
 41
0.25
 42
0.25
 50
106.9621828696288
  0
INSERT
  5
73
100
AcDbEntity
  8
LACOSTE
  6
CONTINUOUS
 62
     7
100
AcDbBlockReference
  2
LONGARROW
 10
1.999999999999997
 20
11.03420210990639
 30
0.0
 41
0.25
 42
0.25
 50
354.3477496043914
  0
TEXT
  5
74
100
AcDbEntity
  8
LACOSTE
  6
CONTINUOUS
 62
     7
100
AcDbText
 10
3.423777740533748
 20
10.00166713221593
 30
0.0
 40
0.8000000000000001
  1
q
 41
0.8
  7
SYMBOLB
 72
     1
 11
3.560737740533749
 21
10.40166713221593
 31
0.0
100
AcDbText
 73
     2
  0
LINE
  5
75
100
AcDbEntity
  8
COMMON
  6
CONTINUOUS
 62
     7
100
AcDbLine
 10
2.0
 20
21.49999999999999
 30
0.0
 11
2.0
 21
3.0
 31
0.0
  0
LINE
  5
76
100
AcDbEntity
  8
COMMON
  6
CONTINUOUS
 62
     7
100
AcDbLine
 10
2.0
 20
3.0
 30
0.0
 11
15.875
 21
3.0
 31
0.0
  0
LINE
  5
77
100
AcDbEntity
  8
COMMON
  6
CONTINUOUS
 62
     1
100
AcDbLine
 10
2.0
 20
8.5
 30
0.0
 11
13.88713707769317
 21
10.87742741553863
 31
0.0
  0
LINE
  5
78
100
AcDbEntity
  8
COMMON
  6
HIDDEN
 62
     1
100
AcDbLine
 10
2.0
 20
8.5
 30
0.0
 11
7.245121951219516
 21
11.89390243902439
 31
0.0
  0
LINE
  5
79
100
AcDbEntity
  8
STM-8
  6
CONTINUOUS
 62
     1
100
AcDbLine
 10
2.0
 20
8.5
 30
0.0
 11
9.735611510791359
 21
8.044964028776981
 31
0.0
  0
CIRCLE
  5
7A
100
AcDbEntity
  8
STM-8
  6
CONTINUOUS
 62
     7
100
AcDbCircle
 10
9.735611510791359
 20
8.044964028776981
 30
0.0
 40
0.05
  0
LINE
  5
7B
100
AcDbEntity
  8
STM-8
  6
CONTINUOUS
 62
     1
100
AcDbLine
 10
9.735611510791358
 20
8.044964028776981
 30
0.0
 11
12.99999999999996
 21
3.0
 31
0.0
  0
POLYLINE
  5
7C
100
AcDbEntity
  8
STM-8
  6
CONTINUOUS
 62
     7
100
AcDb2dPolyline
 66
     1
 10
0.0
 20
0.0
 30
0.0
  0
VERTEX
  5
7D
100
AcDbEntity
  8
STM-8
  6
CONTINUOUS
 62
     7
100
AcDbVertex
100
AcDb2dVertex
 10
13.03724561958234
 20
3.033358114783733
 30
0.0
  0
VERTEX
  5
7E
100
AcDbEntity
  8
STM-8
  6
CONTINUOUS
 62
     7
100
AcDbVertex
100
AcDb2dVertex
 10
13.03898740109353
 20
3.02604182366815
 30
0.0
  0
VERTEX
  5
7F
100
AcDbEntity
  8
STM-8
  6
CONTINUOUS
 62
     7
100
AcDbVertex
100
AcDb2dVertex
 10
13.06728151180404
 20
3.042455241936062
 30
0.0
  0
VERTEX
  5
80
100
AcDbEntity
  8
STM-8
  6
CONTINUOUS
 62
     7
100
AcDbVertex
100
AcDb2dVertex
 10
13.1055327021935
 20
3.069315780590844
 30
0.0
  0
VERTEX
  5
81
100
AcDbEntity
  8
STM-8
  6
CONTINUOUS
 62
     7
100
AcDbVertex
100
AcDb2dVertex
 10
13.13714572274151
 20
3.093340850635871
 30
0.0
  0
VERTEX
  5
82
100
AcDbEntity
  8
STM-8
  6
CONTINUOUS
 62
     7
100
AcDbVertex
100
AcDb2dVertex
 10
13.35984474637158
 20
3.271314249096532
 30
0.0
  0
VERTEX
  5
83
100
AcDbEntity
  8
STM-8
  6
CONTINUOUS
 62
     7
100
AcDbVertex
100
AcDb2dVertex
 10
13.57234543973328
 20
3.460734072956606
 30
0.0
  0
VERTEX
  5
84
100
AcDbEntity
  8
STM-8
  6
CONTINUOUS
 62
     7
100
AcDbVertex
100
AcDb2dVertex
 10
13.76519331286888
 20
3.668274799223941
 30
0.0
  0
VERTEX
  5
85
100
AcDbEntity
  8
STM-8
  6
CONTINUOUS
 62
     7
100
AcDbVertex
100
AcDb2dVertex
 10
13.94056133396736
 20
3.890772463182951
 30
0.0
  0
VERTEX
  5
86
100
AcDbEntity
  8
STM-8
  6
CONTINUOUS
 62
     7
100
AcDbVertex
100
AcDb2dVertex
 10
14.09552709844863
 20
4.124574194882121
 30
0.0
  0
VERTEX
  5
87
100
AcDbEntity
  8
STM-8
  6
CONTINUOUS
 62
     7
100
AcDbVertex
100
AcDb2dVertex
 10
14.23060535182368
 20
4.370389522437804
 30
0.0
  0
VERTEX
  5
88
100
AcDbEntity
  8
STM-8
  6
CONTINUOUS
 62
     7
100
AcDbVertex
100
AcDb2dVertex
 10
14.34308400428338
 20
4.623388268537718
 30
0.0
  0
VERTEX
  5
89
100
AcDbEntity
  8
STM-8
  6
CONTINUOUS
 62
     7
100
AcDbVertex
100
AcDb2dVertex
 10
14.43366465258902
 20
4.885012329073647
 30
0.0
  0
VERTEX
  5
8A
100
AcDbEntity
  8
STM-8
  6
CONTINUOUS
 62
     7
100
AcDbVertex
100
AcDb2dVertex
 10
14.50031244702038
 20
5.149609161074604
 30
0.0
  0
VERTEX
  5
8B
100
AcDbEntity
  8
STM-8
  6
CONTINUOUS
 62
     7
100
AcDbVertex
100
AcDb2dVertex
 10
14.5435693821626
 20
5.419004329522556
 30
0.0
  0
VERTEX
  5
8C
100
AcDbEntity
  8
STM-8
  6
CONTINUOUS
 62
     7
100
AcDbVertex
100
AcDb2dVertex
 10
14.56238239817225
 20
5.68727767251242
 30
0.0
  0
VERTEX
  5
8D
100
AcDbEntity
  8
STM-8
  6
CONTINUOUS
 62
     7
100
AcDbVertex
100
AcDb2dVertex
 10
14.55698014095081
 20
5.956140447063882
 30
0.0
  0
VERTEX
  5
8E
100
AcDbEntity
  8
STM-8
  6
CONTINUOUS
 62
     7
100
AcDbVertex
100
AcDb2dVertex
 10
14.52734317606686
 20
6.220055999237896
 30
0.0
  0
VERTEX
  5
8F
100
AcDbEntity
  8
STM-8
  6
CONTINUOUS
 62
     7
100
AcDbVertex
100
AcDb2dVertex
 10
14.47348944983403
 20
6.480100072570122
 30
0.0
  0
VERTEX
  5
90
100
AcDbEntity
  8
STM-8
  6
CONTINUOUS
 62
     7
100
AcDbVertex
100
AcDb2dVertex
 10
14.39620144128245
 20
6.731718919000599
 30
0.0
  0
VERTEX
  5
91
100
AcDbEntity
  8
STM-8
  6
CONTINUOUS
 62
     7
100
AcDbVertex
100
AcDb2dVertex
 10
14.29563413121352
 20
6.974962957956631
 30
0.0
  0
VERTEX
  5
92
100
AcDbEntity
  8
STM-8
  6
CONTINUOUS
 62
     7
100
AcDbVertex
100
AcDb2dVertex
 10
14.17291174699175
 20
7.206654232087926
 30
0.0
  0
VERTEX
  5
93
100
AcDbEntity
  8
STM-8
  6
CONTINUOUS
 62
     7
100
AcDbVertex
100
AcDb2dVertex
 10
14.02881822894642
 20
7.425692944863643
 30
0.0
  0
VERTEX
  5
94
100
AcDbEntity
  8
STM-8
  6
CONTINUOUS
 62
     7
100
AcDbVertex
100
AcDb2dVertex
 10
13.86427009392934
 20
7.630357909773293
 30
0.0
  0
VERTEX
  5
95
100
AcDbEntity
  8
STM-8
  6
CONTINUOUS
 62
     7
100
AcDbVertex
100
AcDb2dVertex
 10
13.68114880920777
 20
7.818594830719368
 30
0.0
  0
VERTEX
  5
96
100
AcDbEntity
  8
STM-8
  6
CONTINUOUS
 62
     7
100
AcDbVertex
100
AcDb2dVertex
 10
13.47970506476068
 20
7.989901132981295
 30
0.0
  0
VERTEX
  5
97
100
AcDbEntity
  8
STM-8
  6
CONTINUOUS
 62
     7
100
AcDbVertex
100
AcDb2dVertex
 10
13.26318963138711
 20
8.141730490540027
 30
0.0
  0
VERTEX
  5
98
100
AcDbEntity
  8
STM-8
  6
CONTINUOUS
 62
     7
100
AcDbVertex
100
AcDb2dVertex
 10
13.03097267496213
 20
8.274342263853274
 30
0.0
  0
VERTEX
  5
99
100
AcDbEntity
  8
STM-8
  6
CONTINUOUS
 62
     7
100
AcDbVertex
100
AcDb2dVertex
 10
12.78764017360497
 20
8.385281610816502
 30
0.0
  0
VERTEX
  5
9A
100
AcDbEntity
  8
STM-8
  6
CONTINUOUS
 62
     7
100
AcDbVertex
100
AcDb2dVertex
 10
12.53177366969405
 20
8.475062344973649
 30
0.0
  0
VERTEX
  5
9B
100
AcDbEntity
  8
STM-8
  6
CONTINUOUS
 62
     7
100
AcDbVertex
100
AcDb2dVertex
 10
12.26894976549642
 20
8.541848014002008
 30
0.0
  0
VERTEX
  5
9C
100
AcDbEntity
  8
STM-8
  6
CONTINUOUS
 62
     7
100
AcDbVertex
100
AcDb2dVertex
 10
11.99731706899813
 20
8.586014841223592
 30
0.0
  0
VERTEX
  5
9D
100
AcDbEntity
  8
STM-8
  6
CONTINUOUS
 62
     7
100
AcDbVertex
100
AcDb2dVertex
 10
11.72287855264183
 20
8.606672509162173
 30
0.0
  0
VERTEX
  5
9E
100
AcDbEntity
  8
STM-8
  6
CONTINUOUS
 62
     7
100
AcDbVertex
100
AcDb2dVertex
 10
11.44384997446993
 20
8.603890284728734
 30
0.0
  0
VERTEX
  5
9F
100
AcDbEntity
  8
STM-8
  6
CONTINUOUS
 62
     7
100
AcDbVertex
100
AcDb2dVertex
 10
11.16601863251841
 20
8.577785436814334
 30
0.0
  0
VERTEX
  5
A0
100
AcDbEntity
  8
STM-8
  6
CONTINUOUS
 62
     7
100
AcDbVertex
100
AcDb2dVertex
 10
10.88816713286079
 20
8.528199455426497
 30
0.0
  0
VERTEX
  5
A1
100
AcDbEntity
  8
STM-8
  6
CONTINUOUS
 62
     7
100
AcDbVertex
100
AcDb2dVertex
 10
10.61528991201442
 20
8.456064516034217
 30
0.0
  0
VERTEX
  5
A2
100
AcDbEntity
  8
STM-8
  6
CONTINUOUS
 62
     7
100
AcDbVertex
100
AcDb2dVertex
 10
10.34768900595784
 20
8.36008266605134
 30
0.0
  0
VERTEX
  5
A3
100
AcDbEntity
  8
STM-8
  6
CONTINUOUS
 62
     7
100
AcDbVertex
100
AcDb2dVertex
 10
10.08742600462017
 20
8.245208175405966
 30
0.0
  0
VERTEX
  5
A4
100
AcDbEntity
  8
STM-8
  6
CONTINUOUS
 62
     7
100
AcDbVertex
100
AcDb2dVertex
 10
9.928268822773786
 20
8.16394246268941
 30
0.0
  0
VERTEX
  5
A5
100
AcDbEntity
  8
STM-8
  6
CONTINUOUS
 62
     7
100
AcDbVertex
100
AcDb2dVertex
 10
9.782561701305995
 20
8.062159365663454
 30
0.0
  0
SEQEND
  5
A6
100
AcDbEntity
  8
STM-8
  6
CONTINUOUS
 62
     7
  0
LINE
  5
A7
100
AcDbEntity
  8
COMMON
  6
CONTINUOUS
 62
     7
100
AcDbLine
 10
2.0
 20
8.5
 30
0.0
 11
14.60866160231811
 21
10.18866003602474
 31
0.0
  0
TEXT
  5
A8
100
AcDbEntity
  8
COMMON
  6
HIDDEN
100
AcDbText
 10
4.920010676598384
 20
11.15626108007448
 30
0.0
 40
0.8
  1
s
 41
0.6000000000000001
  7
ARIAL
 11
4.920010676598384
 21
11.15626108007448
 31
0.0
100
AcDbText
 73
     1
  0
TEXT
  5
A9
100
AcDbEntity
  8
COMMON
  6
HIDDEN
100
AcDbText
 10
14.42536288019863
 20
10.73250266914959
 30
0.0
 40
0.5
  1
W
 41
0.6000000000000001
  7
ARIAL
 72
     1
 11
14.52016288019863
 21
10.98250266914959
 31
0.0
100
AcDbText
 73
     2
  0
CIRCLE
  5
AA
100
AcDbEntity
  8
COMMON
  6
CONTINUOUS
 62
     7
100
AcDbCircle
 10
14.5
 20
11.0
 30
0.0
 40
0.625
  0
LINE
  5
AB
100
AcDbEntity
  8
STM-8
  6
CONTINUOUS
 62
     1
100
AcDbLine
 10
9.735611510791359
 20
8.044964028776981
 30
0.0
 11
8.847752537457711
 21
9.417109714838085
 31
0.0
  0
LINE
  5
AC
100
AcDbEntity
  8
COMMON
  6
CONTINUOUS
 62
     1
100
AcDbLine
 10
8.847752537457711
 20
9.417109714838085
 30
0.0
 11
8.588541666666669
 21
9.817708333333333
 31
0.0
  0
LINE
  5
AD
100
AcDbEntity
  8
COMMON
  6
CONTINUOUS
 62
     7
100
AcDbLine
 10
1.75
 20
20.0
 30
0.0
 11
-1.0
 21
20.0
 31
0.0
  0
LINE
  5
AE
100
AcDbEntity
  8
COMMON
  6
CONTINUOUS
 62
     7
100
AcDbLine
 10
1.75
 20
8.5
 30
0.0
 11
-0.9999999999999879
 21
8.5
 31
0.0
  0
LINE
  5
AF
100
AcDbEntity
  8
COMMON
  6
CONTINUOUS
 62
     7
100
AcDbLine
 10
0.2499999999999938
 20
20.0
 30
0.0
 11
0.2499999999999973
 21
15.04439999999999
 31
0.0
  0
LINE
  5
B0
100
AcDbEntity
  8
COMMON
  6
CONTINUOUS
 62
     7
100
AcDbLine
 10
0.2500000000000058
 20
8.5
 30
0.0
 11
0.2500000000000027
 21
13.4556
 31
0.0
  0
INSERT
  5
B1
100
AcDbEntity
  8
COMMON
  6
CONTINUOUS
 62
     7
100
AcDbBlockReference
  2
LONGARROW
 10
0.2499999999999938
 20
20.0
 30
0.0
 41
0.25
 42
0.25
 50
270.0
  0
INSERT
  5
B2
100
AcDbEntity
  8
COMMON
  6
CONTINUOUS
 62
     7
100
AcDbBlockReference
  2
LONGARROW
 10
0.2500000000000058
 20
8.5
 30
0.0
 41
0.25
 42
0.25
 50
90.00000000000005
  0
TEXT
  5
B3
100
AcDbEntity
  8
COMMON
  6
CONTINUOUS
 62
     7
100
AcDbText
 10
0.0983199999999995
 20
13.85
 30
0.0
 40
0.8000000000000001
  1
a
 41
0.6000000000000001
  7
ARIAL
 72
     1
 11
0.2499999999999996
 21
14.25
 31
0.0
100
AcDbText
 73
     2
  0
LINE
  5
B4
100
AcDbEntity
  8
STM-8
  6
CONTINUOUS
 62
     1
100
AcDbLine
 10
8.588541666666669
 20
9.817708333333333
 30
0.0
 11
2.0
 21
20.0
 31
0.0
  0
LINE
  5
B5
100
AcDbEntity
  8
STM-8
  6
CONTINUOUS
 62
     7
100
AcDbLine
 10
1.999999999999999
 20
1.744589075108628
 30
0.0
 11
6.705599999999982
 21
1.744589075108628
 31
0.0
  0
INSERT
  5
B6
100
AcDbEntity
  8
STM-8
  6
CONTINUOUS
 62
     7
100
AcDbBlockReference
  2
LONGARROW
 10
12.99999999999996
 20
1.744589075108628
 30
0.0
 41
0.25
 42
0.25
 50
180.0
  0
LINE
  5
B7
100
AcDbEntity
  8
COMMON
  6
CONTINUOUS
 62
     7
100
AcDbLine
 10
1.75
 20
8.5
 30
0.0
 11
-1.0
 21
8.5
 31
0.0
  0
LINE
  5
B8
100
AcDbEntity
  8
COMMON
  6
CONTINUOUS
 62
     7
100
AcDbLine
 10
1.75
 20
3.0
 30
0.0
 11
-0.9999999999999943
 21
3.0
 31
0.0
  0
LINE
  5
B9
100
AcDbEntity
  8
COMMON
  6
CONTINUOUS
 62
     7
100
AcDbLine
 10
0.2500000000000058
 20
8.5
 30
0.0
 11
0.2500000000000075
 21
6.349999999999999
 31
0.0
  0
LINE
  5
BA
100
AcDbEntity
  8
COMMON
  6
CONTINUOUS
 62
     7
100
AcDbLine
 10
0.2500000000000115
 20
3.0
 30
0.0
 11
0.2500000000000102
 21
5.15
 31
0.0
  0
INSERT
  5
BB
100
AcDbEntity
  8
COMMON
  6
CONTINUOUS
 62
     7
100
AcDbBlockReference
  2
LONGARROW
 10
0.2500000000000058
 20
8.5
 30
0.0
 41
0.25
 42
0.25
 50
270.0
  0
INSERT
  5
BC
100
AcDbEntity
  8
COMMON
  6
CONTINUOUS
 62
     7
100
AcDbBlockReference
  2
LONGARROW
 10
0.2500000000000115
 20
3.0
 30
0.0
 41
0.25
 42
0.25
 50
90.00000000000005
  0
TEXT
  5
BD
100
AcDbEntity
  8
COMMON
  6
CONTINUOUS
 62
     7
100
AcDbText
 10
0.1510875356920371
 20
5.440508845437532
 30
0.0
 40
0.8000000000000001
  1
h
 41
0.6000000000000001
  7
ARIAL
 72
     1
 11
0.3027675356920372
 21
5.840508845437533
 31
0.0
100
AcDbText
 73
     2
  0
LINE
  5
BE
100
AcDbEntity
  8
COMMON
  6
CONTINUOUS
 62
     7
100
AcDbLine
 10
14.60866160231811
 20
10.18866003602474
 30
0.0
 11
14.5829646017699
 21
10.38053097345132
 31
0.0
  0
LINE
  5
BF
100
AcDbEntity
  8
LACOSTE
  6
CONTINUOUS
 62
     7
100
AcDbLine
 10
3.038095181661155
 20
18.09227482371739
 30
0.0
 11
3.156030003880253
 21
18.21166865962066
 31
0.0
  0
LINE
  5
C0
100
AcDbEntity
  8
LACOSTE
  6
CONTINUOUS
 62
     7
100
AcDbLine
 10
3.689567834566098
 20
18.02115670512043
 30
0.0
 11
3.358248804194371
 21
17.89861546275314
 31
0.0
  0
LINE
  5
C1
100
AcDbEntity
  8
LACOSTE
  6
CONTINUOUS
 62
     7
100
AcDbLine
 10
3.399870180682302
 20
17.83418176545431
 30
0.0
 11
3.559057634507166
 21
17.89301140795699
 31
0.0
  0
LINE
  5
C2
100
AcDbEntity
  8
LACOSTE
  6
CONTINUOUS
 62
     7
100
AcDbLine
 10
3.852278513244115
 20
17.76926569377276
 30
0.0
 11
3.520959482872395
 21
17.64672445140548
 31
0.0
  0
LINE
  5
C3
100
AcDbEntity
  8
LACOSTE
  6
CONTINUOUS
 62
     7
100
AcDbLine
 10
3.56258085936033
 20
17.58229075410664
 30
0.0
 11
3.721768313185183
 21
17.64112039660932
 31
0.0
  0
LINE
  5
C4
100
AcDbEntity
  8
LACOSTE
  6
CONTINUOUS
 62
     7
100
AcDbLine
 10
4.014989191922143
 20
17.51737468242509
 30
0.0
 11
3.683670161550413
 21
17.39483344005781
 31
0.0
  0
LINE
  5
C5
100
AcDbEntity
  8
LACOSTE
  6
CONTINUOUS
 62
     7
100
AcDbLine
 10
3.725291538038348
 20
17.33039974275897
 30
0.0
 11
3.884478991863201
 21
17.38922938526165
 31
0.0
  0
LINE
  5
C6
100
AcDbEntity
  8
LACOSTE
  6
CONTINUOUS
 62
     7
100
AcDbLine
 10
4.177699870600161
 20
17.26548367107742
 30
0.0
 11
3.84638084022843
 21
17.14294242871014
 31
0.0
  0
ARC
  5
C7
100
AcDbEntity
  8
LACOSTE
  6
CONTINUOUS
 62
     7
100
AcDbCircle
 10
4.192335838889363
 20
17.23095776149871
 30
0.0
 40
0.0375
100
AcDbArc
 50
315.3400246518794
 51
135.3616932741689
  0
LINE
  5
C8
100
AcDbEntity
  8
LACOSTE
  6
CONTINUOUS
 62
     7
100
AcDbLine
 10
3.969590634244216
 20
16.9522023993849
 30
0.0
 11
4.219009238833709
 21
17.20459908673291
 31
0.0
  0
LINE
  5
C9
100
AcDbEntity
  8
LACOSTE
  6
CONTINUOUS
 62
     7
100
AcDbLine
 10
3.9279821181177
 20
17.01661618766812
 30
0.0
 11
4.165652472297107
 21
17.25730634679856
 31
0.0
  0
LINE
  5
CA
100
AcDbEntity
  8
LACOSTE
  6
CONTINUOUS
 62
     7
100
AcDbLine
 10
3.888002216716365
 20
17.0785087314113
 30
0.0
 11
4.047189670541229
 21
17.13733837391398
 31
0.0
  0
LINE
  5
CB
100
AcDbEntity
  8
LACOSTE
  6
CONTINUOUS
 62
     7
100
AcDbLine
 10
3.083969277157422
 20
17.72210180221003
 30
0.0
 11
3.200805860339169
 21
17.84038381236972
 31
0.0
  0
LINE
  5
CC
100
AcDbEntity
  8
LACOSTE
  6
CONTINUOUS
 62
     7
100
AcDbLine
 10
3.032013123544494
 20
17.77580942273082
 30
0.0
 11
3.275630446839823
 21
18.02265130370363
 31
0.0
  0
LINE
  5
CD
100
AcDbEntity
  8
LACOSTE
  6
CONTINUOUS
 62
     7
100
AcDbLine
 10
3.072427554805887
 20
17.71317139587049
 30
0.0
 11
3.399870180682317
 21
17.83418176545431
 31
0.0
  0
LINE
  5
CE
100
AcDbEntity
  8
LACOSTE
  6
CONTINUOUS
 62
     7
100
AcDbLine
 10
3.200805860339169
 20
17.84038381236972
 30
0.0
 11
3.318740682558278
 21
17.95977764827299
 31
0.0
  0
ARC
  5
CF
100
AcDbEntity
  8
LACOSTE
  6
CONTINUOUS
 62
     7
100
AcDbCircle
 10
3.055688753555067
 20
17.74672825109689
 30
0.0
 40
0.0375
100
AcDbArc
 50
129.1498033365673
 51
315.3522300000233
  0
LINE
  5
D0
100
AcDbEntity
  8
LACOSTE
  6
CONTINUOUS
 62
     7
100
AcDbLine
 10
3.083969277157422
 20
17.72210180221003
 30
0.0
 11
3.082367767911613
 21
17.72037525899042
 31
0.0
  0
LINE
  5
D1
100
AcDbEntity
  8
LACOSTE
  6
CONTINUOUS
 62
     7
100
AcDbLine
 10
3.358248804194371
 20
17.89861546275314
 30
0.0
 11
3.200805860339169
 21
17.84038381236972
 31
0.0
  0
LINE
  5
D2
100
AcDbEntity
  8
LACOSTE
  6
CONTINUOUS
 62
     7
100
AcDbLine
 10
3.235138233483912
 20
17.46128038452282
 30
0.0
 11
3.56258085936033
 21
17.58229075410664
 31
0.0
  0
LINE
  5
D3
100
AcDbEntity
  8
LACOSTE
  6
CONTINUOUS
 62
     7
100
AcDbLine
 10
3.363516539017187
 20
17.58849280102205
 30
0.0
 11
3.481451361236292
 21
17.70788663692533
 31
0.0
  0
LINE
  5
D4
100
AcDbEntity
  8
LACOSTE
  6
CONTINUOUS
 62
     7
100
AcDbLine
 10
3.520959482872395
 20
17.64672445140548
 30
0.0
 11
3.363516539017187
 21
17.58849280102205
 31
0.0
  0
LINE
  5
D5
100
AcDbEntity
  8
LACOSTE
  6
CONTINUOUS
 62
     7
100
AcDbLine
 10
3.397848912161929
 20
17.20938937317515
 30
0.0
 11
3.725291538038348
 21
17.33039974275897
 31
0.0
  0
LINE
  5
D6
100
AcDbEntity
  8
LACOSTE
  6
CONTINUOUS
 62
     7
100
AcDbLine
 10
3.526227217695211
 20
17.33660178967439
 30
0.0
 11
3.644162039914306
 21
17.45599562557766
 31
0.0
  0
LINE
  5
D7
100
AcDbEntity
  8
LACOSTE
  6
CONTINUOUS
 62
     7
100
AcDbLine
 10
3.683670161550413
 20
17.39483344005781
 30
0.0
 11
3.526227217695211
 21
17.33660178967439
 31
0.0
  0
LINE
  5
D8
100
AcDbEntity
  8
LACOSTE
  6
CONTINUOUS
 62
     7
100
AcDbLine
 10
3.560559590839947
 20
16.95749836182748
 30
0.0
 11
3.888002216716365
 21
17.0785087314113
 31
0.0
  0
LINE
  5
D9
100
AcDbEntity
  8
LACOSTE
  6
CONTINUOUS
 62
     7
100
AcDbLine
 10
3.688937896373229
 20
17.08471077832672
 30
0.0
 11
3.806872718592323
 21
17.20410461422998
 31
0.0
  0
LINE
  5
DA
100
AcDbEntity
  8
LACOSTE
  6
CONTINUOUS
 62
     7
100
AcDbLine
 10
3.84638084022843
 20
17.14294242871014
 30
0.0
 11
3.688937896373229
 21
17.08471077832672
 31
0.0
  0
LINE
  5
DB
100
AcDbEntity
  8
LACOSTE
  6
CONTINUOUS
 62
     7
100
AcDbLine
 10
3.732463085969968
 20
16.71246690374883
 30
0.0
 11
3.849299669151704
 21
16.83074891390851
 31
0.0
  0
LINE
  5
DC
100
AcDbEntity
  8
LACOSTE
  6
CONTINUOUS
 62
     7
100
AcDbLine
 10
3.680506932357044
 20
16.76617452426961
 30
0.0
 11
3.924124255652355
 21
17.01301640524241
 31
0.0
  0
LINE
  5
DD
100
AcDbEntity
  8
LACOSTE
  6
CONTINUOUS
 62
     7
100
AcDbLine
 10
3.720921363618433
 20
16.70353649740928
 30
0.0
 11
4.048363989494852
 21
16.8245468669931
 31
0.0
  0
LINE
  5
DE
100
AcDbEntity
  8
LACOSTE
  6
CONTINUOUS
 62
     7
100
AcDbLine
 10
3.849299669151704
 20
16.83074891390851
 30
0.0
 11
3.967234491370813
 21
16.95014274981178
 31
0.0
  0
ARC
  5
DF
100
AcDbEntity
  8
LACOSTE
  6
CONTINUOUS
 62
     7
100
AcDbCircle
 10
3.704182562367613
 20
16.73709335263568
 30
0.0
 40
0.0375
100
AcDbArc
 50
129.1498033365673
 51
315.3522300000233
  0
LINE
  5
E0
100
AcDbEntity
  8
LACOSTE
  6
CONTINUOUS
 62
     7
100
AcDbLine
 10
3.732463085969968
 20
16.71246690374883
 30
0.0
 11
3.730861576724162
 21
16.71074036052922
 31
0.0
  0
LINE
  5
E1
100
AcDbEntity
  8
LACOSTE
  6
CONTINUOUS
 62
     7
100
AcDbLine
 10
4.006742613006917
 20
16.88898056429194
 30
0.0
 11
3.849299669151704
 21
16.83074891390851
 31
0.0
  0
LINE
  5
E2
100
AcDbEntity
  8
LACOSTE
  6
CONTINUOUS
 62
     7
100
AcDbLine
 10
3.895173764647985
 20
16.46057589240116
 30
0.0
 11
4.012010347829733
 21
16.57885790256084
 31
0.0
  0
LINE
  5
E3
100
AcDbEntity
  8
LACOSTE
  6
CONTINUOUS
 62
     7
100
AcDbLine
 10
3.843217611035058
 20
16.51428351292194
 30
0.0
 11
4.086834934330383
 21
16.76112539389475
 31
0.0
  0
LINE
  5
E4
100
AcDbEntity
  8
LACOSTE
  6
CONTINUOUS
 62
     7
100
AcDbLine
 10
3.883632042296461
 20
16.45164548606162
 30
0.0
 11
4.211074668172869
 21
16.57265585564543
 31
0.0
  0
LINE
  5
E5
100
AcDbEntity
  8
LACOSTE
  6
CONTINUOUS
 62
     7
100
AcDbLine
 10
4.012010347829733
 20
16.57885790256084
 30
0.0
 11
4.129945170048831
 21
16.69825173846411
 31
0.0
  0
LINE
  5
E6
100
AcDbEntity
  8
LACOSTE
  6
CONTINUOUS
 62
     7
100
AcDbLine
 10
4.263086791643203
 20
16.52136629081713
 30
0.0
 11
4.264595748209014
 21
16.5228952201723
 31
0.0
  0
ARC
  5
E7
100
AcDbEntity
  8
LACOSTE
  6
CONTINUOUS
 62
     7
100
AcDbCircle
 10
3.86689324104563
 20
16.48520234128801
 30
0.0
 40
0.0375
100
AcDbArc
 50
129.1498033365673
 51
315.3522300000233
  0
LINE
  5
E8
100
AcDbEntity
  8
LACOSTE
  6
CONTINUOUS
 62
     7
100
AcDbLine
 10
3.895173764647985
 20
16.46057589240116
 30
0.0
 11
3.893572255402176
 21
16.45884934918155
 31
0.0
  0
LINE
  5
E9
100
AcDbEntity
  8
LACOSTE
  6
CONTINUOUS
 62
     7
100
AcDbLine
 10
4.169453291684934
 20
16.63708955294427
 30
0.0
 11
4.012010347829733
 21
16.57885790256084
 31
0.0
  0
LINE
  5
EA
100
AcDbEntity
  8
LACOSTE
  6
CONTINUOUS
 62
     7
100
AcDbLine
 10
4.422961660437522
 20
16.28941473034317
 30
0.0
 11
4.424470617003319
 21
16.29094365969833
 31
0.0
  0
LINE
  5
EB
100
AcDbEntity
  8
LACOSTE
  6
CONTINUOUS
 62
     7
100
AcDbLine
 10
4.574966970364439
 20
16.00545235985175
 30
0.0
 11
4.576475926930239
 21
16.00698128920691
 31
0.0
  0
LINE
  5
EC
100
AcDbEntity
  8
LACOSTE
  6
CONTINUOUS
 62
     7
100
AcDbLine
 10
4.737677649042456
 20
15.75356134850407
 30
0.0
 11
4.739186605608264
 21
15.75509027785924
 31
0.0
  0
LINE
  5
ED
100
AcDbEntity
  8
LACOSTE
  6
CONTINUOUS
 62
     7
100
AcDbLine
 10
4.086834934330383
 20
16.76112539389475
 30
0.0
 11
4.088343890896179
 21
16.76265432324991
 31
0.0
  0
LINE
  5
EE
100
AcDbEntity
  8
LACOSTE
  6
CONTINUOUS
 62
     7
100
AcDbLine
 10
4.057884443325999
 20
16.20868488105348
 30
0.0
 11
4.174721026507747
 21
16.32696689121317
 31
0.0
  0
LINE
  5
EF
100
AcDbEntity
  8
LACOSTE
  6
CONTINUOUS
 62
     7
100
AcDbLine
 10
4.005928289713086
 20
16.26239250157428
 30
0.0
 11
4.249545613008397
 21
16.50923438254708
 31
0.0
  0
LINE
  5
F0
100
AcDbEntity
  8
LACOSTE
  6
CONTINUOUS
 62
     7
100
AcDbLine
 10
4.046342720974475
 20
16.19975447471395
 30
0.0
 11
4.373785346850898
 21
16.32076484429776
 31
0.0
  0
LINE
  5
F1
100
AcDbEntity
  8
LACOSTE
  6
CONTINUOUS
 62
     7
100
AcDbLine
 10
4.174721026507747
 20
16.32696689121317
 30
0.0
 11
4.292655848726855
 21
16.44636072711644
 31
0.0
  0
ARC
  5
F2
100
AcDbEntity
  8
LACOSTE
  6
CONTINUOUS
 62
     7
100
AcDbCircle
 10
4.029603919723655
 20
16.23331132994034
 30
0.0
 40
0.0375
100
AcDbArc
 50
129.1498033365673
 51
315.3522300000233
  0
LINE
  5
F3
100
AcDbEntity
  8
LACOSTE
  6
CONTINUOUS
 62
     7
100
AcDbLine
 10
4.057884443325999
 20
16.20868488105348
 30
0.0
 11
4.056282934080194
 21
16.20695833783387
 31
0.0
  0
LINE
  5
F4
100
AcDbEntity
  8
LACOSTE
  6
CONTINUOUS
 62
     7
100
AcDbLine
 10
4.332163970362962
 20
16.3851985415966
 30
0.0
 11
4.174721026507747
 21
16.32696689121317
 31
0.0
  0
LINE
  5
F5
100
AcDbEntity
  8
LACOSTE
  6
CONTINUOUS
 62
     7
100
AcDbLine
 10
4.249545613008397
 20
16.50923438254708
 30
0.0
 11
4.251054569574208
 21
16.51076331190225
 31
0.0
  0
LINE
  5
F6
100
AcDbEntity
  8
LACOSTE
  6
CONTINUOUS
 62
     7
100
AcDbLine
 10
4.220595122004024
 20
15.95679386970582
 30
0.0
 11
4.337431705185775
 21
16.07507587986551
 31
0.0
  0
LINE
  5
F7
100
AcDbEntity
  8
LACOSTE
  6
CONTINUOUS
 62
     7
100
AcDbLine
 10
4.1686389683911
 20
16.01050149022661
 30
0.0
 11
4.412256291686414
 21
16.25734337119941
 31
0.0
  0
LINE
  5
F8
100
AcDbEntity
  8
LACOSTE
  6
CONTINUOUS
 62
     7
100
AcDbLine
 10
4.209053399652493
 20
15.94786346336627
 30
0.0
 11
4.536496025528908
 21
16.06887383295009
 31
0.0
  0
LINE
  5
F9
100
AcDbEntity
  8
LACOSTE
  6
CONTINUOUS
 62
     7
100
AcDbLine
 10
4.337431705185775
 20
16.07507587986551
 30
0.0
 11
4.455366527404869
 21
16.19446971576878
 31
0.0
  0
ARC
  5
FA
100
AcDbEntity
  8
LACOSTE
  6
CONTINUOUS
 62
     7
100
AcDbCircle
 10
4.192314598401669
 20
15.98142031859267
 30
0.0
 40
0.0375
100
AcDbArc
 50
129.1498033365673
 51
315.3522300000233
  0
LINE
  5
FB
100
AcDbEntity
  8
LACOSTE
  6
CONTINUOUS
 62
     7
100
AcDbLine
 10
4.220595122004024
 20
15.95679386970582
 30
0.0
 11
4.218993612758204
 21
15.95506732648621
 31
0.0
  0
LINE
  5
FC
100
AcDbEntity
  8
LACOSTE
  6
CONTINUOUS
 62
     7
100
AcDbLine
 10
4.494874649040976
 20
16.13330753024893
 30
0.0
 11
4.337431705185775
 21
16.07507587986551
 31
0.0
  0
LINE
  5
FD
100
AcDbEntity
  8
LACOSTE
  6
CONTINUOUS
 62
     7
100
AcDbLine
 10
4.412256291686414
 20
16.25734337119941
 30
0.0
 11
4.413765248252222
 21
16.25887230055458
 31
0.0
  0
LINE
  5
FE
100
AcDbEntity
  8
LACOSTE
  6
CONTINUOUS
 62
     7
100
AcDbLine
 10
4.383305800682038
 20
15.70490285835815
 30
0.0
 11
4.500142383863789
 21
15.82318486851784
 31
0.0
  0
LINE
  5
FF
100
AcDbEntity
  8
LACOSTE
  6
CONTINUOUS
 62
     7
100
AcDbLine
 10
4.331349647069114
 20
15.75861047887894
 30
0.0
 11
4.574966970364439
 21
16.00545235985175
 31
0.0
  0
LINE
  5
100
100
AcDbEntity
  8
LACOSTE
  6
CONTINUOUS
 62
     7
100
AcDbLine
 10
4.371764078330507
 20
15.6959724520186
 30
0.0
 11
4.699206704206925
 21
15.81698282160242
 31
0.0
  0
LINE
  5
101
100
AcDbEntity
  8
LACOSTE
  6
CONTINUOUS
 62
     7
100
AcDbLine
 10
4.500142383863789
 20
15.82318486851784
 30
0.0
 11
4.618077206082883
 21
15.94257870442111
 31
0.0
  0
ARC
  5
102
100
AcDbEntity
  8
LACOSTE
  6
CONTINUOUS
 62
     7
100
AcDbCircle
 10
4.355025277079686
 20
15.729529307245
 30
0.0
 40
0.0375
100
AcDbArc
 50
129.1498033365673
 51
315.3522300000233
  0
LINE
  5
103
100
AcDbEntity
  8
LACOSTE
  6
CONTINUOUS
 62
     7
100
AcDbLine
 10
4.383305800682038
 20
15.70490285835815
 30
0.0
 11
4.381704291436232
 21
15.70317631513854
 31
0.0
  0
LINE
  5
104
100
AcDbEntity
  8
LACOSTE
  6
CONTINUOUS
 62
     7
100
AcDbLine
 10
4.65758532771899
 20
15.88141651890127
 30
0.0
 11
4.500142383863789
 21
15.82318486851784
 31
0.0
  0
LINE
  5
105
100
AcDbEntity
  8
LACOSTE
  6
CONTINUOUS
 62
     7
100
AcDbLine
 10
4.574966970364439
 20
16.00545235985175
 30
0.0
 11
4.576475926930239
 21
16.00698128920691
 31
0.0
  0
LINE
  5
106
100
AcDbEntity
  8
LACOSTE
  6
CONTINUOUS
 62
     7
100
AcDbLine
 10
4.546016479360066
 20
15.45301184701049
 30
0.0
 11
4.662853062541806
 21
15.57129385717017
 31
0.0
  0
LINE
  5
107
100
AcDbEntity
  8
LACOSTE
  6
CONTINUOUS
 62
     7
100
AcDbLine
 10
4.494060325747138
 20
15.50671946753127
 30
0.0
 11
4.737677649042456
 21
15.75356134850407
 31
0.0
  0
LINE
  5
108
100
AcDbEntity
  8
LACOSTE
  6
CONTINUOUS
 62
     7
100
AcDbLine
 10
4.534474757008535
 20
15.44408144067094
 30
0.0
 11
4.86191738288495
 21
15.56509181025476
 31
0.0
  0
LINE
  5
109
100
AcDbEntity
  8
LACOSTE
  6
CONTINUOUS
 62
     7
100
AcDbLine
 10
4.662853062541806
 20
15.57129385717017
 30
0.0
 11
4.780787884760911
 21
15.69068769307344
 31
0.0
  0
ARC
  5
10A
100
AcDbEntity
  8
LACOSTE
  6
CONTINUOUS
 62
     7
100
AcDbCircle
 10
4.517735955757704
 20
15.47763829589733
 30
0.0
 40
0.0375
100
AcDbArc
 50
129.1498033365673
 51
315.3522300000233
  0
LINE
  5
10B
100
AcDbEntity
  8
LACOSTE
  6
CONTINUOUS
 62
     7
100
AcDbLine
 10
4.546016479360066
 20
15.45301184701049
 30
0.0
 11
4.544414970114249
 21
15.45128530379087
 31
0.0
  0
LINE
  5
10C
100
AcDbEntity
  8
LACOSTE
  6
CONTINUOUS
 62
     7
100
AcDbLine
 10
4.820296006397008
 20
15.62952550755359
 30
0.0
 11
4.662853062541806
 21
15.57129385717017
 31
0.0
  0
LINE
  5
10D
100
AcDbEntity
  8
LACOSTE
  6
CONTINUOUS
 62
     7
100
AcDbLine
 10
4.737677649042456
 20
15.75356134850407
 30
0.0
 11
4.739186605608264
 21
15.75509027785924
 31
0.0
  0
LINE
  5
10E
100
AcDbEntity
  8
LACOSTE
  6
CONTINUOUS
 62
     7
100
AcDbLine
 10
4.500772322056661
 20
16.75963079531156
 30
0.0
 11
4.169453291684934
 21
16.63708955294427
 31
0.0
  0
ARC
  5
10F
100
AcDbEntity
  8
LACOSTE
  6
CONTINUOUS
 62
     7
100
AcDbCircle
 10
4.51540829034587
 20
16.72510488573284
 30
0.0
 40
0.0375
100
AcDbArc
 50
315.3400246518794
 51
135.3616932741689
  0
LINE
  5
110
100
AcDbEntity
  8
LACOSTE
  6
CONTINUOUS
 62
     7
100
AcDbLine
 10
4.29266308570072
 20
16.44634952361903
 30
0.0
 11
4.542081690290199
 21
16.69874621096703
 31
0.0
  0
LINE
  5
111
100
AcDbEntity
  8
LACOSTE
  6
CONTINUOUS
 62
     7
100
AcDbLine
 10
4.251054569574208
 20
16.51076331190225
 30
0.0
 11
4.488724923753611
 21
16.75145347103269
 31
0.0
  0
LINE
  5
112
100
AcDbEntity
  8
LACOSTE
  6
CONTINUOUS
 62
     7
100
AcDbLine
 10
4.211074668172869
 20
16.57265585564543
 30
0.0
 11
4.370262121997729
 21
16.63148549814811
 31
0.0
  0
LINE
  5
113
100
AcDbEntity
  8
LACOSTE
  6
CONTINUOUS
 62
     7
100
AcDbLine
 10
4.263086791643203
 20
16.52136629081713
 30
0.0
 11
4.264595748209011
 21
16.5228952201723
 31
0.0
  0
LINE
  5
114
100
AcDbEntity
  8
LACOSTE
  6
CONTINUOUS
 62
     7
100
AcDbLine
 10
4.663483000734682
 20
16.50773978396388
 30
0.0
 11
4.332163970362962
 21
16.3851985415966
 31
0.0
  0
ARC
  5
115
100
AcDbEntity
  8
LACOSTE
  6
CONTINUOUS
 62
     7
100
AcDbCircle
 10
4.678118969023895
 20
16.47321387438518
 30
0.0
 40
0.0375
100
AcDbArc
 50
315.3400246518794
 51
135.3616932741689
  0
LINE
  5
116
100
AcDbEntity
  8
LACOSTE
  6
CONTINUOUS
 62
     7
100
AcDbLine
 10
4.455373764378737
 20
16.19445851227136
 30
0.0
 11
4.704792368968227
 21
16.44685519961937
 31
0.0
  0
LINE
  5
117
100
AcDbEntity
  8
LACOSTE
  6
CONTINUOUS
 62
     7
100
AcDbLine
 10
4.413765248252222
 20
16.25887230055458
 30
0.0
 11
4.651435602431629
 21
16.49956245968501
 31
0.0
  0
LINE
  5
118
100
AcDbEntity
  8
LACOSTE
  6
CONTINUOUS
 62
     7
100
AcDbLine
 10
4.373785346850898
 20
16.32076484429776
 30
0.0
 11
4.532972800675747
 21
16.37959448680044
 31
0.0
  0
LINE
  5
119
100
AcDbEntity
  8
LACOSTE
  6
CONTINUOUS
 62
     7
100
AcDbLine
 10
4.422961660437525
 20
16.28941473034317
 30
0.0
 11
4.424470617003319
 21
16.29094365969833
 31
0.0
  0
LINE
  5
11A
100
AcDbEntity
  8
LACOSTE
  6
CONTINUOUS
 62
     7
100
AcDbLine
 10
4.826193679412707
 20
16.25584877261622
 30
0.0
 11
4.494874649040976
 21
16.13330753024893
 31
0.0
  0
ARC
  5
11B
100
AcDbEntity
  8
LACOSTE
  6
CONTINUOUS
 62
     7
100
AcDbCircle
 10
4.840829647701912
 20
16.22132286303751
 30
0.0
 40
0.0375
100
AcDbArc
 50
315.3400246518794
 51
135.3616932741689
  0
LINE
  5
11C
100
AcDbEntity
  8
LACOSTE
  6
CONTINUOUS
 62
     7
100
AcDbLine
 10
4.618084443056762
 20
15.9425675009237
 30
0.0
 11
4.867503047646252
 21
16.19496418827171
 31
0.0
  0
LINE
  5
11D
100
AcDbEntity
  8
LACOSTE
  6
CONTINUOUS
 62
     7
100
AcDbLine
 10
4.576475926930239
 20
16.00698128920691
 30
0.0
 11
4.814146281109653
 21
16.24767144833735
 31
0.0
  0
LINE
  5
11E
100
AcDbEntity
  8
LACOSTE
  6
CONTINUOUS
 62
     7
100
AcDbLine
 10
4.536496025528908
 20
16.06887383295009
 30
0.0
 11
4.69568347935376
 21
16.12770347545277
 31
0.0
  0
LINE
  5
11F
100
AcDbEntity
  8
LACOSTE
  6
CONTINUOUS
 62
     7
100
AcDbLine
 10
4.574966970364439
 20
16.00545235985174
 30
0.0
 11
4.576475926930239
 21
16.00698128920691
 31
0.0
  0
LINE
  5
120
100
AcDbEntity
  8
LACOSTE
  6
CONTINUOUS
 62
     7
100
AcDbLine
 10
4.988904358090717
 20
16.00395776126855
 30
0.0
 11
4.65758532771899
 21
15.88141651890127
 31
0.0
  0
ARC
  5
121
100
AcDbEntity
  8
LACOSTE
  6
CONTINUOUS
 62
     7
100
AcDbCircle
 10
5.003540326379923
 20
15.96943185168984
 30
0.0
 40
0.0375
100
AcDbArc
 50
315.3400246518794
 51
135.3616932741689
  0
LINE
  5
122
100
AcDbEntity
  8
LACOSTE
  6
CONTINUOUS
 62
     7
100
AcDbLine
 10
4.780795121734779
 20
15.69067648957603
 30
0.0
 11
5.030213726324266
 21
15.94307317692404
 31
0.0
  0
LINE
  5
123
100
AcDbEntity
  8
LACOSTE
  6
CONTINUOUS
 62
     7
100
AcDbLine
 10
4.739186605608264
 20
15.75509027785924
 30
0.0
 11
4.976856959787667
 21
15.99578043698968
 31
0.0
  0
LINE
  5
124
100
AcDbEntity
  8
LACOSTE
  6
CONTINUOUS
 62
     7
100
AcDbLine
 10
4.699206704206925
 20
15.81698282160242
 30
0.0
 11
4.858394158031789
 21
15.8758124641051
 31
0.0
  0
LINE
  5
125
100
AcDbEntity
  8
LACOSTE
  6
CONTINUOUS
 62
     7
100
AcDbLine
 10
4.737677649042456
 20
15.75356134850407
 30
0.0
 11
4.739186605608264
 21
15.75509027785924
 31
0.0
  0
LINE
  5
126
100
AcDbEntity
  8
LACOSTE
  6
CONTINUOUS
 62
     7
100
AcDbLine
 10
5.151615036768735
 20
15.75206674992088
 30
0.0
 11
4.820296006397018
 21
15.6295255075536
 31
0.0
  0
ARC
  5
127
100
AcDbEntity
  8
LACOSTE
  6
CONTINUOUS
 62
     7
100
AcDbCircle
 10
5.166251005057951
 20
15.71754084034217
 30
0.0
 40
0.0375
100
AcDbArc
 50
315.3400246518794
 51
135.3616932741689
  0
LINE
  5
128
100
AcDbEntity
  8
LACOSTE
  6
CONTINUOUS
 62
     7
100
AcDbLine
 10
4.943505800412793
 20
15.43878547822835
 30
0.0
 11
5.192924405002283
 21
15.69118216557637
 31
0.0
  0
LINE
  5
129
100
AcDbEntity
  8
LACOSTE
  6
CONTINUOUS
 62
     7
100
AcDbLine
 10
4.901897284286281
 20
15.50319926651158
 30
0.0
 11
5.139567638465681
 21
15.74388942564201
 31
0.0
  0
LINE
  5
12A
100
AcDbEntity
  8
LACOSTE
  6
CONTINUOUS
 62
     7
100
AcDbLine
 10
4.861917382884943
 20
15.56509181025474
 30
0.0
 11
5.021104836709803
 21
15.62392145275744
 31
0.0
  0
LINE
  5
12B
100
AcDbEntity
  8
LACOSTE
  6
CONTINUOUS
 62
     7
100
AcDbLine
 10
4.900388327720484
 20
15.50167033715641
 30
0.0
 11
4.901897284286281
 21
15.50319926651158
 31
0.0
  0
LINE
  5
12C
100
AcDbEntity
  8
LACOSTE
  6
CONTINUOUS
 62
     7
100
AcDbLine
 10
4.338061643378637
 20
17.01152180665922
 30
0.0
 11
4.006742613006917
 21
16.88898056429194
 31
0.0
  0
ARC
  5
12D
100
AcDbEntity
  8
LACOSTE
  6
CONTINUOUS
 62
     7
100
AcDbCircle
 10
4.352697611667853
 20
16.97699589708052
 30
0.0
 40
0.0375
100
AcDbArc
 50
315.3400246518794
 51
135.3616932741689
  0
LINE
  5
12E
100
AcDbEntity
  8
LACOSTE
  6
CONTINUOUS
 62
     7
100
AcDbLine
 10
4.129952407022706
 20
16.6982405349667
 30
0.0
 11
4.379371011612185
 21
16.95063722231471
 31
0.0
  0
LINE
  5
12F
100
AcDbEntity
  8
LACOSTE
  6
CONTINUOUS
 62
     7
100
AcDbLine
 10
4.088343890896179
 20
16.76265432324991
 30
0.0
 11
4.326014245075594
 21
17.00334448238036
 31
0.0
  0
LINE
  5
130
100
AcDbEntity
  8
LACOSTE
  6
CONTINUOUS
 62
     7
100
AcDbLine
 10
4.048363989494852
 20
16.8245468669931
 30
0.0
 11
4.207551443319704
 21
16.88337650949578
 31
0.0
  0
LINE
  5
131
100
AcDbEntity
  8
LACOSTE
  6
CONTINUOUS
 62
     7
100
AcDbLine
 10
4.086834934330383
 20
16.76112539389475
 30
0.0
 11
4.088343890896179
 21
16.76265432324991
 31
0.0
  0
LINE
  5
132
100
AcDbEntity
  8
LACOSTE
  6
CONTINUOUS
 62
     7
100
AcDbLine
 10
4.2495456130084
 20
16.50923438254708
 30
0.0
 11
4.251054569574208
 21
16.51076331190225
 31
0.0
  0
LINE
  5
133
100
AcDbEntity
  8
LACOSTE
  6
CONTINUOUS
 62
     7
100
AcDbLine
 10
4.412256291686414
 20
16.25734337119941
 30
0.0
 11
4.413765248252222
 21
16.25887230055458
 31
0.0
  0
LINE
  5
134
100
AcDbEntity
  8
LACOSTE
  6
CONTINUOUS
 62
     7
100
AcDbLine
 10
4.574966970364439
 20
16.00545235985174
 30
0.0
 11
4.576475926930239
 21
16.00698128920691
 31
0.0
  0
LINE
  5
135
100
AcDbEntity
  8
LACOSTE
  6
CONTINUOUS
 62
     7
100
AcDbLine
 10
4.737677649042456
 20
15.75356134850407
 30
0.0
 11
4.739186605608264
 21
15.75509027785924
 31
0.0
  0
LINE
  5
136
100
AcDbEntity
  8
LACOSTE
  6
CONTINUOUS
 62
     7
100
AcDbLine
 10
4.898039421820943
 20
15.49959948408587
 30
0.0
 11
4.899548378386743
 21
15.50112841344104
 31
0.0
  0
LINE
  5
137
100
AcDbEntity
  8
LACOSTE
  6
CONTINUOUS
 62
     7
100
AcDbLine
 10
4.707887208704338
 20
15.20057891194744
 30
0.0
 11
4.824723791886089
 21
15.31886092210714
 31
0.0
  0
LINE
  5
138
100
AcDbEntity
  8
LACOSTE
  6
CONTINUOUS
 62
     7
100
AcDbLine
 10
4.655931055091425
 20
15.25428653246824
 30
0.0
 11
4.899548378386743
 21
15.50112841344104
 31
0.0
  0
LINE
  5
139
100
AcDbEntity
  8
LACOSTE
  6
CONTINUOUS
 62
     7
100
AcDbLine
 10
4.696345486352822
 20
15.1916485056079
 30
0.0
 11
5.02378811222923
 21
15.31265887519172
 31
0.0
  0
LINE
  5
13A
100
AcDbEntity
  8
LACOSTE
  6
CONTINUOUS
 62
     7
100
AcDbLine
 10
4.824723791886089
 20
15.31886092210714
 30
0.0
 11
4.942658614105187
 21
15.4382547580104
 31
0.0
  0
LINE
  5
13B
100
AcDbEntity
  8
LACOSTE
  6
CONTINUOUS
 62
     7
100
AcDbLine
 10
4.899548378386743
 20
15.50112841344104
 30
0.0
 11
4.90105733495255
 21
15.50265734279621
 31
0.0
  0
ARC
  5
13C
100
AcDbEntity
  8
LACOSTE
  6
CONTINUOUS
 62
     7
100
AcDbCircle
 10
4.67960668510199
 20
15.2252053608343
 30
0.0
 40
0.0375
100
AcDbArc
 50
129.1498033365673
 51
315.3522300000233
  0
LINE
  5
13D
100
AcDbEntity
  8
LACOSTE
  6
CONTINUOUS
 62
     7
100
AcDbLine
 10
4.707887208704338
 20
15.20057891194744
 30
0.0
 11
4.706285699458536
 21
15.19885236872783
 31
0.0
  0
LINE
  5
13E
100
AcDbEntity
  8
LACOSTE
  6
CONTINUOUS
 62
     7
100
AcDbLine
 10
4.982166735741305
 20
15.37709257249056
 30
0.0
 11
4.824723791886089
 21
15.31886092210714
 31
0.0
  0
LINE
  5
13F
100
AcDbEntity
  8
LACOSTE
  6
CONTINUOUS
 62
     7
100
AcDbLine
 10
4.87059788738237
 20
14.94868790059978
 30
0.0
 11
4.987434470564117
 21
15.06696991075947
 31
0.0
  0
LINE
  5
140
100
AcDbEntity
  8
LACOSTE
  6
CONTINUOUS
 62
     7
100
AcDbLine
 10
4.818641733769442
 20
15.00239552112057
 30
0.0
 11
5.062259057064757
 21
15.24923740209337
 31
0.0
  0
LINE
  5
141
100
AcDbEntity
  8
LACOSTE
  6
CONTINUOUS
 62
     7
100
AcDbLine
 10
4.859056165030835
 20
14.93975749426023
 30
0.0
 11
5.186498790907254
 21
15.06076786384405
 31
0.0
  0
LINE
  5
142
100
AcDbEntity
  8
LACOSTE
  6
CONTINUOUS
 62
     7
100
AcDbLine
 10
4.987434470564117
 20
15.06696991075947
 30
0.0
 11
5.105369292783212
 21
15.18636374666274
 31
0.0
  0
LINE
  5
143
100
AcDbEntity
  8
LACOSTE
  6
CONTINUOUS
 62
     7
100
AcDbLine
 10
5.238510914377588
 20
15.00947829901575
 30
0.0
 11
5.240019870943395
 21
15.01100722837092
 31
0.0
  0
ARC
  5
144
100
AcDbEntity
  8
LACOSTE
  6
CONTINUOUS
 62
     7
100
AcDbCircle
 10
4.842317363780015
 20
14.97331434948663
 30
0.0
 40
0.0375
100
AcDbArc
 50
129.1498033365673
 51
315.3522300000233
  0
LINE
  5
145
100
AcDbEntity
  8
LACOSTE
  6
CONTINUOUS
 62
     7
100
AcDbLine
 10
4.87059788738237
 20
14.94868790059978
 30
0.0
 11
4.86899637813655
 21
14.94696135738016
 31
0.0
  0
LINE
  5
146
100
AcDbEntity
  8
LACOSTE
  6
CONTINUOUS
 62
     7
100
AcDbLine
 10
5.144877414419319
 20
15.12520156114289
 30
0.0
 11
4.987434470564117
 21
15.06696991075947
 31
0.0
  0
LINE
  5
147
100
AcDbEntity
  8
LACOSTE
  6
CONTINUOUS
 62
     7
100
AcDbLine
 10
5.062259057064757
 20
15.24923740209337
 30
0.0
 11
5.063768013630561
 21
15.25076633144854
 31
0.0
  0
LINE
  5
148
100
AcDbEntity
  8
LACOSTE
  6
CONTINUOUS
 62
     7
100
AcDbLine
 10
5.033308566060384
 20
14.69679688925211
 30
0.0
 11
5.150145149242131
 21
14.8150788994118
 31
0.0
  0
LINE
  5
149
100
AcDbEntity
  8
LACOSTE
  6
CONTINUOUS
 62
     7
100
AcDbLine
 10
4.98135241244746
 20
14.7505045097729
 30
0.0
 11
5.224969735742785
 21
14.9973463907457
 31
0.0
  0
LINE
  5
14A
100
AcDbEntity
  8
LACOSTE
  6
CONTINUOUS
 62
     7
100
AcDbLine
 10
5.021766843708849
 20
14.68786648291256
 30
0.0
 11
5.349209469585268
 21
14.80887685249638
 31
0.0
  0
LINE
  5
14B
100
AcDbEntity
  8
LACOSTE
  6
CONTINUOUS
 62
     7
100
AcDbLine
 10
5.150145149242131
 20
14.8150788994118
 30
0.0
 11
5.268079971461229
 21
14.93447273531506
 31
0.0
  0
ARC
  5
14C
100
AcDbEntity
  8
LACOSTE
  6
CONTINUOUS
 62
     7
100
AcDbCircle
 10
5.005028042458029
 20
14.72142333813896
 30
0.0
 40
0.0375
100
AcDbArc
 50
129.1498033365673
 51
315.3522300000233
  0
LINE
  5
14D
100
AcDbEntity
  8
LACOSTE
  6
CONTINUOUS
 62
     7
100
AcDbLine
 10
5.033308566060384
 20
14.69679688925211
 30
0.0
 11
5.031707056814578
 21
14.6950703460325
 31
0.0
  0
LINE
  5
14E
100
AcDbEntity
  8
LACOSTE
  6
CONTINUOUS
 62
     7
100
AcDbLine
 10
5.307588093097333
 20
14.87331054979522
 30
0.0
 11
5.150145149242131
 21
14.8150788994118
 31
0.0
  0
LINE
  5
14F
100
AcDbEntity
  8
LACOSTE
  6
CONTINUOUS
 62
     7
100
AcDbLine
 10
5.224969735742785
 20
14.9973463907457
 30
0.0
 11
5.226478692308578
 21
14.99887532010087
 31
0.0
  0
LINE
  5
150
100
AcDbEntity
  8
LACOSTE
  6
CONTINUOUS
 62
     7
100
AcDbLine
 10
5.47619644479105
 20
15.24774280351018
 30
0.0
 11
5.144877414419319
 21
15.12520156114289
 31
0.0
  0
ARC
  5
151
100
AcDbEntity
  8
LACOSTE
  6
CONTINUOUS
 62
     7
100
AcDbCircle
 10
5.490832413080251
 20
15.21321689393147
 30
0.0
 40
0.0375
100
AcDbArc
 50
315.3400246518794
 51
135.3616932741689
  0
LINE
  5
152
100
AcDbEntity
  8
LACOSTE
  6
CONTINUOUS
 62
     7
100
AcDbLine
 10
5.268087208435094
 20
14.93446153181765
 30
0.0
 11
5.517505813024584
 21
15.18685821916566
 31
0.0
  0
LINE
  5
153
100
AcDbEntity
  8
LACOSTE
  6
CONTINUOUS
 62
     7
100
AcDbLine
 10
5.226478692308578
 20
14.99887532010087
 30
0.0
 11
5.464149046487996
 21
15.23956547923131
 31
0.0
  0
LINE
  5
154
100
AcDbEntity
  8
LACOSTE
  6
CONTINUOUS
 62
     7
100
AcDbLine
 10
5.186498790907254
 20
15.06076786384405
 30
0.0
 11
5.345686244732103
 21
15.11959750634673
 31
0.0
  0
LINE
  5
155
100
AcDbEntity
  8
LACOSTE
  6
CONTINUOUS
 62
     7
100
AcDbLine
 10
5.238510914377588
 20
15.00947829901575
 30
0.0
 11
5.240019870943395
 21
15.01100722837092
 31
0.0
  0
LINE
  5
156
100
AcDbEntity
  8
LACOSTE
  6
CONTINUOUS
 62
     7
100
AcDbLine
 10
5.638907123469067
 20
14.99585179216251
 30
0.0
 11
5.307588093097333
 21
14.87331054979522
 31
0.0
  0
LINE
  5
157
100
AcDbEntity
  8
LACOSTE
  6
CONTINUOUS
 62
     7
100
AcDbLine
 10
5.349209469585268
 20
14.80887685249638
 30
0.0
 11
5.508396923410121
 21
14.86770649499906
 31
0.0
  0
LINE
  5
158
100
AcDbEntity
  8
LACOSTE
  6
CONTINUOUS
 62
     7
100
AcDbLine
 10
5.313485766113021
 20
15.49963381485784
 30
0.0
 11
4.982166735741305
 21
15.37709257249056
 31
0.0
  0
ARC
  5
159
100
AcDbEntity
  8
LACOSTE
  6
CONTINUOUS
 62
     7
100
AcDbCircle
 10
5.328121734402227
 20
15.46510790527913
 30
0.0
 40
0.0375
100
AcDbArc
 50
315.3400246518794
 51
135.3616932741689
  0
LINE
  5
15A
100
AcDbEntity
  8
LACOSTE
  6
CONTINUOUS
 62
     7
100
AcDbLine
 10
5.10537652975708
 20
15.18635254316532
 30
0.0
 11
5.35479513434657
 21
15.43874923051333
 31
0.0
  0
LINE
  5
15B
100
AcDbEntity
  8
LACOSTE
  6
CONTINUOUS
 62
     7
100
AcDbLine
 10
5.063768013630561
 20
15.25076633144854
 30
0.0
 11
5.301438367809968
 21
15.49145649057898
 31
0.0
  0
LINE
  5
15C
100
AcDbEntity
  8
LACOSTE
  6
CONTINUOUS
 62
     7
100
AcDbLine
 10
5.02378811222923
 20
15.31265887519172
 30
0.0
 11
5.182975566054093
 21
15.3714885176944
 31
0.0
  0
LINE
  5
15D
100
AcDbEntity
  8
LACOSTE
  6
CONTINUOUS
 62
     7
100
AcDbLine
 10
5.062259057064757
 20
15.24923740209337
 30
0.0
 11
5.063768013630561
 21
15.25076633144854
 31
0.0
  0
LINE
  5
15E
100
AcDbEntity
  8
LACOSTE
  6
CONTINUOUS
 62
     7
100
AcDbLine
 10
5.224969735742785
 20
14.9973463907457
 30
0.0
 11
5.226478692308578
 21
14.99887532010087
 31
0.0
  0
ARC
  5
15F
100
AcDbEntity
  8
LACOSTE
  6
CONTINUOUS
 62
     7
100
AcDbCircle
 10
5.665590490061322
 20
14.96950320686266
 30
0.0
 40
0.0375
100
AcDbArc
 50
315.3400246518794
 51
135.3616932741689
  0
ARC
  5
160
100
AcDbEntity
  8
LACOSTE
  6
CONTINUOUS
 62
     7
100
AcDbCircle
 10
6.153722526095378
 20
14.21383017281966
 30
0.0
 40
0.0375
100
AcDbArc
 50
315.3400246518794
 51
135.3616932741689
  0
LINE
  5
161
100
AcDbEntity
  8
LACOSTE
  6
CONTINUOUS
 62
     7
100
AcDbLine
 10
5.930977321450232
 20
13.93507481070585
 30
0.0
 11
6.180395926039707
 21
14.18747149805385
 31
0.0
  0
LINE
  5
162
100
AcDbEntity
  8
LACOSTE
  6
CONTINUOUS
 62
     7
100
AcDbLine
 10
5.889368805323709
 20
13.99948859898906
 30
0.0
 11
6.127039159503123
 21
14.2401787581195
 31
0.0
  0
LINE
  5
163
100
AcDbEntity
  8
LACOSTE
  6
CONTINUOUS
 62
     7
100
AcDbLine
 10
6.224473478849223
 20
13.50423870213807
 30
0.0
 11
6.225982435415016
 21
13.50576763149324
 31
0.0
  0
LINE
  5
164
100
AcDbEntity
  8
LACOSTE
  6
CONTINUOUS
 62
     7
100
AcDbLine
 10
6.384348347643527
 20
13.27228714166411
 30
0.0
 11
6.385857304209334
 21
13.27381607101928
 31
0.0
  0
LINE
  5
165
100
AcDbEntity
  8
LACOSTE
  6
CONTINUOUS
 62
     7
100
AcDbLine
 10
6.536353657570458
 20
12.98832477117269
 30
0.0
 11
6.537862614136255
 21
12.98985370052785
 31
0.0
  0
LINE
  5
166
100
AcDbEntity
  8
LACOSTE
  6
CONTINUOUS
 62
     7
100
AcDbLine
 10
6.699064336248472
 20
12.73643375982502
 30
0.0
 11
6.700573292814272
 21
12.73796268918018
 31
0.0
  0
LINE
  5
167
100
AcDbEntity
  8
LACOSTE
  6
CONTINUOUS
 62
     7
100
AcDbLine
 10
6.048221621536388
 20
13.74399780521569
 30
0.0
 11
6.049730578102199
 21
13.74552673457086
 31
0.0
  0
LINE
  5
168
100
AcDbEntity
  8
LACOSTE
  6
CONTINUOUS
 62
     7
100
AcDbLine
 10
6.210932300214402
 20
13.49210679386802
 30
0.0
 11
6.212441256780209
 21
13.49363572322318
 31
0.0
  0
LINE
  5
169
100
AcDbEntity
  8
LACOSTE
  6
CONTINUOUS
 62
     7
100
AcDbLine
 10
6.373642978892434
 20
13.24021578252035
 30
0.0
 11
6.375151935458227
 21
13.24174471187552
 31
0.0
  0
LINE
  5
16A
100
AcDbEntity
  8
LACOSTE
  6
CONTINUOUS
 62
     7
100
AcDbLine
 10
6.536353657570458
 20
12.98832477117269
 30
0.0
 11
6.537862614136255
 21
12.98985370052785
 31
0.0
  0
LINE
  5
16B
100
AcDbEntity
  8
LACOSTE
  6
CONTINUOUS
 62
     7
100
AcDbLine
 10
6.699064336248472
 20
12.73643375982502
 30
0.0
 11
6.700573292814272
 21
12.73796268918018
 31
0.0
  0
LINE
  5
16C
100
AcDbEntity
  8
LACOSTE
  6
CONTINUOUS
 62
     7
100
AcDbLine
 10
6.462159009262681
 20
13.7425032066325
 30
0.0
 11
6.13083997889095
 21
13.61996196426521
 31
0.0
  0
ARC
  5
16D
100
AcDbEntity
  8
LACOSTE
  6
CONTINUOUS
 62
     7
100
AcDbCircle
 10
6.476794977551882
 20
13.70797729705379
 30
0.0
 40
0.0375
100
AcDbArc
 50
315.3400246518794
 51
135.3616932741689
  0
LINE
  5
16E
100
AcDbEntity
  8
LACOSTE
  6
CONTINUOUS
 62
     7
100
AcDbLine
 10
6.254049772906725
 20
13.42922193493997
 30
0.0
 11
6.503468377496215
 21
13.68161862228798
 31
0.0
  0
LINE
  5
16F
100
AcDbEntity
  8
LACOSTE
  6
CONTINUOUS
 62
     7
100
AcDbLine
 10
6.212441256780209
 20
13.49363572322318
 30
0.0
 11
6.450111610959627
 21
13.73432588235363
 31
0.0
  0
LINE
  5
170
100
AcDbEntity
  8
LACOSTE
  6
CONTINUOUS
 62
     7
100
AcDbLine
 10
6.172461355378882
 20
13.55552826696637
 30
0.0
 11
6.331648809203734
 21
13.61435790946905
 31
0.0
  0
LINE
  5
171
100
AcDbEntity
  8
LACOSTE
  6
CONTINUOUS
 62
     7
100
AcDbLine
 10
6.224473478849223
 20
13.50423870213807
 30
0.0
 11
6.225982435415016
 21
13.50576763149324
 31
0.0
  0
LINE
  5
172
100
AcDbEntity
  8
LACOSTE
  6
CONTINUOUS
 62
     7
100
AcDbLine
 10
6.624869687940694
 20
13.49061219528483
 30
0.0
 11
6.293550657568967
 21
13.36807095291754
 31
0.0
  0
ARC
  5
173
100
AcDbEntity
  8
LACOSTE
  6
CONTINUOUS
 62
     7
100
AcDbCircle
 10
6.639505656229896
 20
13.45608628570612
 30
0.0
 40
0.0375
100
AcDbArc
 50
315.3400246518794
 51
135.3616932741689
  0
LINE
  5
174
100
AcDbEntity
  8
LACOSTE
  6
CONTINUOUS
 62
     7
100
AcDbLine
 10
6.416760451584753
 20
13.17733092359231
 30
0.0
 11
6.666179056174229
 21
13.42972761094031
 31
0.0
  0
LINE
  5
175
100
AcDbEntity
  8
LACOSTE
  6
CONTINUOUS
 62
     7
100
AcDbLine
 10
6.375151935458227
 20
13.24174471187552
 30
0.0
 11
6.612822289637641
 21
13.48243487100596
 31
0.0
  0
LINE
  5
176
100
AcDbEntity
  8
LACOSTE
  6
CONTINUOUS
 62
     7
100
AcDbLine
 10
6.335172034056903
 20
13.3036372556187
 30
0.0
 11
6.494359487881748
 21
13.36246689812138
 31
0.0
  0
LINE
  5
177
100
AcDbEntity
  8
LACOSTE
  6
CONTINUOUS
 62
     7
100
AcDbLine
 10
6.38434834764353
 20
13.2722871416641
 30
0.0
 11
6.385857304209334
 21
13.27381607101928
 31
0.0
  0
LINE
  5
178
100
AcDbEntity
  8
LACOSTE
  6
CONTINUOUS
 62
     7
100
AcDbLine
 10
6.787580366618708
 20
13.23872118393716
 30
0.0
 11
6.456261336246978
 21
13.11617994156987
 31
0.0
  0
ARC
  5
179
100
AcDbEntity
  8
LACOSTE
  6
CONTINUOUS
 62
     7
100
AcDbCircle
 10
6.802216334907924
 20
13.20419527435845
 30
0.0
 40
0.0375
100
AcDbArc
 50
315.3400246518794
 51
135.3616932741689
  0
LINE
  5
17A
100
AcDbEntity
  8
LACOSTE
  6
CONTINUOUS
 62
     7
100
AcDbLine
 10
6.579471130262767
 20
12.92543991224464
 30
0.0
 11
6.828889734852257
 21
13.17783659959264
 31
0.0
  0
LINE
  5
17B
100
AcDbEntity
  8
LACOSTE
  6
CONTINUOUS
 62
     7
100
AcDbLine
 10
6.537862614136255
 20
12.98985370052785
 30
0.0
 11
6.775532968315655
 21
13.23054385965829
 31
0.0
  0
LINE
  5
17C
100
AcDbEntity
  8
LACOSTE
  6
CONTINUOUS
 62
     7
100
AcDbLine
 10
6.497882712734917
 20
13.05174624427103
 30
0.0
 11
6.657070166559776
 21
13.11057588677371
 31
0.0
  0
LINE
  5
17D
100
AcDbEntity
  8
LACOSTE
  6
CONTINUOUS
 62
     7
100
AcDbLine
 10
6.536353657570458
 20
12.98832477117269
 30
0.0
 11
6.537862614136255
 21
12.98985370052785
 31
0.0
  0
LINE
  5
17E
100
AcDbEntity
  8
LACOSTE
  6
CONTINUOUS
 62
     7
100
AcDbLine
 10
6.950291045296722
 20
12.98683017258949
 30
0.0
 11
6.618972014925006
 21
12.86428893022221
 31
0.0
  0
ARC
  5
17F
100
AcDbEntity
  8
LACOSTE
  6
CONTINUOUS
 62
     7
100
AcDbCircle
 10
6.964927013585946
 20
12.95230426301078
 30
0.0
 40
0.0375
100
AcDbArc
 50
315.3400246518794
 51
135.3616932741689
  0
LINE
  5
180
100
AcDbEntity
  8
LACOSTE
  6
CONTINUOUS
 62
     7
100
AcDbLine
 10
6.742181808940781
 20
12.67354890089696
 30
0.0
 11
6.991600413530271
 21
12.92594558824498
 31
0.0
  0
LINE
  5
181
100
AcDbEntity
  8
LACOSTE
  6
CONTINUOUS
 62
     7
100
AcDbLine
 10
6.700573292814272
 20
12.73796268918018
 30
0.0
 11
6.938243646993672
 21
12.97865284831062
 31
0.0
  0
LINE
  5
182
100
AcDbEntity
  8
LACOSTE
  6
CONTINUOUS
 62
     7
100
AcDbLine
 10
6.66059339141293
 20
12.79985523292336
 30
0.0
 11
6.819780845237794
 21
12.85868487542604
 31
0.0
  0
LINE
  5
183
100
AcDbEntity
  8
LACOSTE
  6
CONTINUOUS
 62
     7
100
AcDbLine
 10
6.699064336248472
 20
12.73643375982502
 30
0.0
 11
6.700573292814272
 21
12.73796268918018
 31
0.0
  0
LINE
  5
184
100
AcDbEntity
  8
LACOSTE
  6
CONTINUOUS
 62
     7
100
AcDbLine
 10
7.113001723974754
 20
12.73493916124182
 30
0.0
 11
6.781682693603023
 21
12.61239791887453
 31
0.0
  0
ARC
  5
185
100
AcDbEntity
  8
LACOSTE
  6
CONTINUOUS
 62
     7
100
AcDbCircle
 10
7.127637692263956
 20
12.70041325166311
 30
0.0
 40
0.0375
100
AcDbArc
 50
315.3400246518794
 51
135.3616932741689
  0
LINE
  5
186
100
AcDbEntity
  8
LACOSTE
  6
CONTINUOUS
 62
     7
100
AcDbLine
 10
6.904892487618798
 20
12.42165788954929
 30
0.0
 11
7.154311092208303
 21
12.6740545768973
 31
0.0
  0
LINE
  5
187
100
AcDbEntity
  8
LACOSTE
  6
CONTINUOUS
 62
     7
100
AcDbLine
 10
6.863283971492297
 20
12.48607167783252
 30
0.0
 11
7.100954325671697
 21
12.72676183696296
 31
0.0
  0
LINE
  5
188
100
AcDbEntity
  8
LACOSTE
  6
CONTINUOUS
 62
     7
100
AcDbLine
 10
6.823304070090959
 20
12.54796422157569
 30
0.0
 11
6.982491523915808
 21
12.60679386407837
 31
0.0
  0
LINE
  5
189
100
AcDbEntity
  8
LACOSTE
  6
CONTINUOUS
 62
     7
100
AcDbLine
 10
6.86177501492649
 20
12.48454274847734
 30
0.0
 11
6.863283971492297
 21
12.48607167783252
 31
0.0
  0
LINE
  5
18A
100
AcDbEntity
  8
LACOSTE
  6
CONTINUOUS
 62
     7
100
AcDbLine
 10
6.299448330584652
 20
13.99439421798016
 30
0.0
 11
5.968129300212932
 21
13.87185297561289
 31
0.0
  0
ARC
  5
18B
100
AcDbEntity
  8
LACOSTE
  6
CONTINUOUS
 62
     7
100
AcDbCircle
 10
6.314084298873854
 20
13.95986830840145
 30
0.0
 40
0.0375
100
AcDbArc
 50
315.3400246518794
 51
135.3616932741689
  0
LINE
  5
18C
100
AcDbEntity
  8
LACOSTE
  6
CONTINUOUS
 62
     7
100
AcDbLine
 10
6.091339094228708
 20
13.68111294628764
 30
0.0
 11
6.340757698818201
 21
13.93350963363565
 31
0.0
  0
LINE
  5
18D
100
AcDbEntity
  8
LACOSTE
  6
CONTINUOUS
 62
     7
100
AcDbLine
 10
6.049730578102199
 20
13.74552673457086
 30
0.0
 11
6.287400932281599
 21
13.98621689370129
 31
0.0
  0
LINE
  5
18E
100
AcDbEntity
  8
LACOSTE
  6
CONTINUOUS
 62
     7
100
AcDbLine
 10
6.009750676700857
 20
13.80741927831404
 30
0.0
 11
6.16893813052572
 21
13.86624892081672
 31
0.0
  0
LINE
  5
18F
100
AcDbEntity
  8
LACOSTE
  6
CONTINUOUS
 62
     7
100
AcDbLine
 10
6.048221621536388
 20
13.74399780521569
 30
0.0
 11
6.049730578102199
 21
13.74552673457086
 31
0.0
  0
LINE
  5
190
100
AcDbEntity
  8
LACOSTE
  6
CONTINUOUS
 62
     7
100
AcDbLine
 10
6.210932300214405
 20
13.49210679386801
 30
0.0
 11
6.212441256780209
 21
13.49363572322318
 31
0.0
  0
LINE
  5
191
100
AcDbEntity
  8
LACOSTE
  6
CONTINUOUS
 62
     7
100
AcDbLine
 10
6.373642978892434
 20
13.24021578252035
 30
0.0
 11
6.375151935458227
 21
13.24174471187552
 31
0.0
  0
LINE
  5
192
100
AcDbEntity
  8
LACOSTE
  6
CONTINUOUS
 62
     7
100
AcDbLine
 10
6.536353657570458
 20
12.98832477117269
 30
0.0
 11
6.537862614136255
 21
12.98985370052785
 31
0.0
  0
LINE
  5
193
100
AcDbEntity
  8
LACOSTE
  6
CONTINUOUS
 62
     7
100
AcDbLine
 10
6.699064336248472
 20
12.73643375982502
 30
0.0
 11
6.700573292814272
 21
12.73796268918018
 31
0.0
  0
LINE
  5
194
100
AcDbEntity
  8
LACOSTE
  6
CONTINUOUS
 62
     7
100
AcDbLine
 10
6.859426109026948
 20
12.48247189540681
 30
0.0
 11
6.860935065592748
 21
12.48400082476197
 31
0.0
  0
LINE
  5
195
100
AcDbEntity
  8
LACOSTE
  6
CONTINUOUS
 62
     7
100
AcDbLine
 10
6.860935065592748
 20
12.48400082476197
 30
0.0
 11
6.862444022158555
 21
12.48552975411715
 31
0.0
  0
LINE
  5
196
100
AcDbEntity
  8
LACOSTE
  6
CONTINUOUS
 62
     7
100
AcDbLine
 10
7.199897601583607
 20
11.9923507103367
 30
0.0
 11
7.201406558149404
 21
11.99387963969186
 31
0.0
  0
LINE
  5
197
100
AcDbEntity
  8
LACOSTE
  6
CONTINUOUS
 62
     7
100
AcDbLine
 10
7.359772470377915
 20
11.76039914986273
 30
0.0
 11
7.361281426943708
 21
11.7619280792179
 31
0.0
  0
LINE
  5
198
100
AcDbEntity
  8
LACOSTE
  6
CONTINUOUS
 62
     7
100
AcDbLine
 10
7.511777780304832
 20
11.4764367793713
 30
0.0
 11
7.513286736870639
 21
11.47796570872648
 31
0.0
  0
LINE
  5
199
100
AcDbEntity
  8
LACOSTE
  6
CONTINUOUS
 62
     7
100
AcDbLine
 10
7.67448845898285
 20
11.22454576802363
 30
0.0
 11
7.675997415548653
 21
11.22607469737881
 31
0.0
  0
LINE
  5
19A
100
AcDbEntity
  8
LACOSTE
  6
CONTINUOUS
 62
     7
100
AcDbLine
 10
7.023645744270776
 20
12.23210981341431
 30
0.0
 11
7.025154700836569
 21
12.23363874276948
 31
0.0
  0
LINE
  5
19B
100
AcDbEntity
  8
LACOSTE
  6
CONTINUOUS
 62
     7
100
AcDbLine
 10
7.18635642294879
 20
11.98021880206664
 30
0.0
 11
7.187865379514594
 21
11.98174773142181
 31
0.0
  0
LINE
  5
19C
100
AcDbEntity
  8
LACOSTE
  6
CONTINUOUS
 62
     7
100
AcDbLine
 10
7.349067101626818
 20
11.72832779071898
 30
0.0
 11
7.350576058192611
 21
11.72985672007414
 31
0.0
  0
LINE
  5
19D
100
AcDbEntity
  8
LACOSTE
  6
CONTINUOUS
 62
     7
100
AcDbLine
 10
7.511777780304832
 20
11.4764367793713
 30
0.0
 11
7.513286736870639
 21
11.47796570872648
 31
0.0
  0
LINE
  5
19E
100
AcDbEntity
  8
LACOSTE
  6
CONTINUOUS
 62
     7
100
AcDbLine
 10
7.67448845898285
 20
11.22454576802363
 30
0.0
 11
7.675997415548653
 21
11.22607469737881
 31
0.0
  0
LINE
  5
19F
100
AcDbEntity
  8
LACOSTE
  6
CONTINUOUS
 62
     7
100
AcDbLine
 10
7.437583131997055
 20
12.23061521483112
 30
0.0
 11
7.10626410162532
 21
12.10807397246383
 31
0.0
  0
ARC
  5
1A0
100
AcDbEntity
  8
LACOSTE
  6
CONTINUOUS
 62
     7
100
AcDbCircle
 10
7.452219100286257
 20
12.1960893052524
 30
0.0
 40
0.0375
100
AcDbArc
 50
315.3400246518794
 51
135.3616932741689
  0
LINE
  5
1A1
100
AcDbEntity
  8
LACOSTE
  6
CONTINUOUS
 62
     7
100
AcDbLine
 10
7.22947389564111
 20
11.9173339431386
 30
0.0
 11
7.478892500230589
 21
12.16973063048659
 31
0.0
  0
LINE
  5
1A2
100
AcDbEntity
  8
LACOSTE
  6
CONTINUOUS
 62
     7
100
AcDbLine
 10
7.187865379514594
 20
11.98174773142181
 30
0.0
 11
7.425535733694005
 21
12.22243789055225
 31
0.0
  0
LINE
  5
1A3
100
AcDbEntity
  8
LACOSTE
  6
CONTINUOUS
 62
     7
100
AcDbLine
 10
7.147885478113259
 20
12.04364027516499
 30
0.0
 11
7.307072931938119
 21
12.10246991766767
 31
0.0
  0
LINE
  5
1A4
100
AcDbEntity
  8
LACOSTE
  6
CONTINUOUS
 62
     7
100
AcDbLine
 10
7.199897601583607
 20
11.9923507103367
 30
0.0
 11
7.201406558149404
 21
11.99387963969186
 31
0.0
  0
LINE
  5
1A5
100
AcDbEntity
  8
LACOSTE
  6
CONTINUOUS
 62
     7
100
AcDbLine
 10
7.600293810675069
 20
11.97872420348344
 30
0.0
 11
7.268974780303349
 21
11.85618296111617
 31
0.0
  0
ARC
  5
1A6
100
AcDbEntity
  8
LACOSTE
  6
CONTINUOUS
 62
     7
100
AcDbCircle
 10
7.614929778964285
 20
11.94419829390474
 30
0.0
 40
0.0375
100
AcDbArc
 50
315.3400246518794
 51
135.3616932741689
  0
LINE
  5
1A7
100
AcDbEntity
  8
LACOSTE
  6
CONTINUOUS
 62
     7
100
AcDbLine
 10
7.392184574319127
 20
11.66544293179092
 30
0.0
 11
7.641603178908617
 21
11.91783961913893
 31
0.0
  0
LINE
  5
1A8
100
AcDbEntity
  8
LACOSTE
  6
CONTINUOUS
 62
     7
100
AcDbLine
 10
7.350576058192611
 20
11.72985672007414
 30
0.0
 11
7.588246412372015
 21
11.97054687920457
 31
0.0
  0
LINE
  5
1A9
100
AcDbEntity
  8
LACOSTE
  6
CONTINUOUS
 62
     7
100
AcDbLine
 10
7.310596156791287
 20
11.79174926381732
 30
0.0
 11
7.469783610616136
 21
11.85057890632
 31
0.0
  0
LINE
  5
1AA
100
AcDbEntity
  8
LACOSTE
  6
CONTINUOUS
 62
     7
100
AcDbLine
 10
7.359772470377915
 20
11.76039914986273
 30
0.0
 11
7.361281426943708
 21
11.7619280792179
 31
0.0
  0
LINE
  5
1AB
100
AcDbEntity
  8
LACOSTE
  6
CONTINUOUS
 62
     7
100
AcDbLine
 10
7.763004489353097
 20
11.72683319213578
 30
0.0
 11
7.431685458981366
 21
11.60429194976849
 31
0.0
  0
ARC
  5
1AC
100
AcDbEntity
  8
LACOSTE
  6
CONTINUOUS
 62
     7
100
AcDbCircle
 10
7.777640457642302
 20
11.69230728255707
 30
0.0
 40
0.0375
100
AcDbArc
 50
315.3400246518794
 51
135.3616932741689
  0
LINE
  5
1AD
100
AcDbEntity
  8
LACOSTE
  6
CONTINUOUS
 62
     7
100
AcDbLine
 10
7.554895252997155
 20
11.41355192044326
 30
0.0
 11
7.804313857586645
 21
11.66594860779127
 31
0.0
  0
LINE
  5
1AE
100
AcDbEntity
  8
LACOSTE
  6
CONTINUOUS
 62
     7
100
AcDbLine
 10
7.513286736870639
 20
11.47796570872648
 30
0.0
 11
7.750957091050043
 21
11.71865586785691
 31
0.0
  0
LINE
  5
1AF
100
AcDbEntity
  8
LACOSTE
  6
CONTINUOUS
 62
     7
100
AcDbLine
 10
7.473306835469298
 20
11.53985825246965
 30
0.0
 11
7.632494289294154
 21
11.59868789497233
 31
0.0
  0
LINE
  5
1B0
100
AcDbEntity
  8
LACOSTE
  6
CONTINUOUS
 62
     7
100
AcDbLine
 10
7.511777780304832
 20
11.4764367793713
 30
0.0
 11
7.513286736870639
 21
11.47796570872648
 31
0.0
  0
LINE
  5
1B1
100
AcDbEntity
  8
LACOSTE
  6
CONTINUOUS
 62
     7
100
AcDbLine
 10
7.925715168031111
 20
11.47494218078811
 30
0.0
 11
7.59439613765938
 21
11.35240093842082
 31
0.0
  0
ARC
  5
1B2
100
AcDbEntity
  8
LACOSTE
  6
CONTINUOUS
 62
     7
100
AcDbCircle
 10
7.940351136320327
 20
11.44041627120941
 30
0.0
 40
0.0375
100
AcDbArc
 50
315.3400246518794
 51
135.3616932741689
  0
LINE
  5
1B3
100
AcDbEntity
  8
LACOSTE
  6
CONTINUOUS
 62
     7
100
AcDbLine
 10
7.717605931675169
 20
11.16166090909558
 30
0.0
 11
7.967024536264659
 21
11.4140575964436
 31
0.0
  0
LINE
  5
1B4
100
AcDbEntity
  8
LACOSTE
  6
CONTINUOUS
 62
     7
100
AcDbLine
 10
7.675997415548653
 20
11.22607469737881
 30
0.0
 11
7.913667769728057
 21
11.46676485650924
 31
0.0
  0
LINE
  5
1B5
100
AcDbEntity
  8
LACOSTE
  6
CONTINUOUS
 62
     7
100
AcDbLine
 10
7.636017514147319
 20
11.28796724112198
 30
0.0
 11
7.795204967972178
 21
11.34679688362467
 31
0.0
  0
LINE
  5
1B6
100
AcDbEntity
  8
LACOSTE
  6
CONTINUOUS
 62
     7
100
AcDbLine
 10
7.67448845898285
 20
11.22454576802363
 30
0.0
 11
7.675997415548653
 21
11.22607469737881
 31
0.0
  0
LINE
  5
1B7
100
AcDbEntity
  8
LACOSTE
  6
CONTINUOUS
 62
     7
100
AcDbLine
 10
8.088425846709139
 20
11.22305116944045
 30
0.0
 11
7.757106816337408
 21
11.10050992707316
 31
0.0
  0
LINE
  5
1B8
100
AcDbEntity
  8
LACOSTE
  6
CONTINUOUS
 62
     7
100
AcDbLine
 10
7.798728192825347
 20
11.03607622977432
 30
0.0
 11
7.957915646650196
 21
11.094905872277
 31
0.0
  0
LINE
  5
1B9
100
AcDbEntity
  8
LACOSTE
  6
CONTINUOUS
 62
     7
100
AcDbLine
 10
7.274872453319037
 20
12.48250622617879
 30
0.0
 11
6.94355342294731
 21
12.3599649838115
 31
0.0
  0
ARC
  5
1BA
100
AcDbEntity
  8
LACOSTE
  6
CONTINUOUS
 62
     7
100
AcDbCircle
 10
7.289508421608243
 20
12.44798031660008
 30
0.0
 40
0.0375
100
AcDbArc
 50
315.3400246518794
 51
135.3616932741689
  0
LINE
  5
1BB
100
AcDbEntity
  8
LACOSTE
  6
CONTINUOUS
 62
     7
100
AcDbLine
 10
7.066763216963092
 20
12.16922495448627
 30
0.0
 11
7.316181821552572
 21
12.42162164183427
 31
0.0
  0
LINE
  5
1BC
100
AcDbEntity
  8
LACOSTE
  6
CONTINUOUS
 62
     7
100
AcDbLine
 10
7.025154700836569
 20
12.23363874276948
 30
0.0
 11
7.262825055015984
 21
12.47432890189992
 31
0.0
  0
LINE
  5
1BD
100
AcDbEntity
  8
LACOSTE
  6
CONTINUOUS
 62
     7
100
AcDbLine
 10
6.985174799435245
 20
12.29553128651266
 30
0.0
 11
7.144362253260091
 21
12.35436092901534
 31
0.0
  0
LINE
  5
1BE
100
AcDbEntity
  8
LACOSTE
  6
CONTINUOUS
 62
     7
100
AcDbLine
 10
7.023645744270776
 20
12.23210981341431
 30
0.0
 11
7.025154700836569
 21
12.23363874276948
 31
0.0
  0
LINE
  5
1BF
100
AcDbEntity
  8
LACOSTE
  6
CONTINUOUS
 62
     7
100
AcDbLine
 10
7.18635642294879
 20
11.98021880206664
 30
0.0
 11
7.187865379514594
 21
11.98174773142181
 31
0.0
  0
LINE
  5
1C0
100
AcDbEntity
  8
LACOSTE
  6
CONTINUOUS
 62
     7
100
AcDbLine
 10
7.349067101626818
 20
11.72832779071898
 30
0.0
 11
7.350576058192611
 21
11.72985672007414
 31
0.0
  0
LINE
  5
1C1
100
AcDbEntity
  8
LACOSTE
  6
CONTINUOUS
 62
     7
100
AcDbLine
 10
7.511777780304832
 20
11.4764367793713
 30
0.0
 11
7.513286736870639
 21
11.47796570872648
 31
0.0
  0
LINE
  5
1C2
100
AcDbEntity
  8
LACOSTE
  6
CONTINUOUS
 62
     7
100
AcDbLine
 10
7.67448845898285
 20
11.22454576802363
 30
0.0
 11
7.675997415548653
 21
11.22607469737881
 31
0.0
  0
LINE
  5
1C3
100
AcDbEntity
  8
LACOSTE
  6
CONTINUOUS
 62
     7
100
AcDbLine
 10
5.693849773175983
 20
13.69533931506977
 30
0.0
 11
5.81068635635772
 21
13.81362132522945
 31
0.0
  0
LINE
  5
1C4
100
AcDbEntity
  8
LACOSTE
  6
CONTINUOUS
 62
     7
100
AcDbLine
 10
5.64189361956306
 20
13.74904693559056
 30
0.0
 11
5.88551094285837
 21
13.99588881656336
 31
0.0
  0
LINE
  5
1C5
100
AcDbEntity
  8
LACOSTE
  6
CONTINUOUS
 62
     7
100
AcDbLine
 10
5.682308050824453
 20
13.68640890873022
 30
0.0
 11
6.009750676700857
 21
13.80741927831404
 31
0.0
  0
LINE
  5
1C6
100
AcDbEntity
  8
LACOSTE
  6
CONTINUOUS
 62
     7
100
AcDbLine
 10
5.81068635635772
 20
13.81362132522945
 30
0.0
 11
5.928621178576818
 21
13.93301516113272
 31
0.0
  0
ARC
  5
1C7
100
AcDbEntity
  8
LACOSTE
  6
CONTINUOUS
 62
     7
100
AcDbCircle
 10
5.665569249573628
 20
13.71996576395662
 30
0.0
 40
0.0375
100
AcDbArc
 50
129.1498033365673
 51
315.3522300000233
  0
LINE
  5
1C8
100
AcDbEntity
  8
LACOSTE
  6
CONTINUOUS
 62
     7
100
AcDbLine
 10
5.693849773175983
 20
13.69533931506977
 30
0.0
 11
5.692248263930164
 21
13.69361277185015
 31
0.0
  0
LINE
  5
1C9
100
AcDbEntity
  8
LACOSTE
  6
CONTINUOUS
 62
     7
100
AcDbLine
 10
5.968129300212936
 20
13.87185297561288
 30
0.0
 11
5.81068635635772
 21
13.81362132522945
 31
0.0
  0
LINE
  5
1CA
100
AcDbEntity
  8
LACOSTE
  6
CONTINUOUS
 62
     7
100
AcDbLine
 10
5.856560451853997
 20
13.4434483037221
 30
0.0
 11
5.973397035035748
 21
13.56173031388179
 31
0.0
  0
LINE
  5
1CB
100
AcDbEntity
  8
LACOSTE
  6
CONTINUOUS
 62
     7
100
AcDbLine
 10
5.804604298241073
 20
13.49715592424289
 30
0.0
 11
6.048221621536402
 21
13.74399780521569
 31
0.0
  0
LINE
  5
1CC
100
AcDbEntity
  8
LACOSTE
  6
CONTINUOUS
 62
     7
100
AcDbLine
 10
5.845018729502466
 20
13.43451789738255
 30
0.0
 11
6.172461355378889
 21
13.55552826696637
 31
0.0
  0
LINE
  5
1CD
100
AcDbEntity
  8
LACOSTE
  6
CONTINUOUS
 62
     7
100
AcDbLine
 10
5.973397035035748
 20
13.56173031388179
 30
0.0
 11
6.091331857254843
 21
13.68112414978505
 31
0.0
  0
LINE
  5
1CE
100
AcDbEntity
  8
LACOSTE
  6
CONTINUOUS
 62
     7
100
AcDbLine
 10
6.224473478849223
 20
13.50423870213807
 30
0.0
 11
6.22598243541503
 21
13.50576763149324
 31
0.0
  0
ARC
  5
1CF
100
AcDbEntity
  8
LACOSTE
  6
CONTINUOUS
 62
     7
100
AcDbCircle
 10
5.828279928251649
 20
13.46807475260895
 30
0.0
 40
0.0375
100
AcDbArc
 50
129.1498033365673
 51
315.3522300000233
  0
LINE
  5
1D0
100
AcDbEntity
  8
LACOSTE
  6
CONTINUOUS
 62
     7
100
AcDbLine
 10
5.856560451853997
 20
13.4434483037221
 30
0.0
 11
5.854958942608181
 21
13.44172176050248
 31
0.0
  0
LINE
  5
1D1
100
AcDbEntity
  8
LACOSTE
  6
CONTINUOUS
 62
     7
100
AcDbLine
 10
6.13083997889095
 20
13.61996196426521
 30
0.0
 11
5.973397035035748
 21
13.56173031388179
 31
0.0
  0
LINE
  5
1D2
100
AcDbEntity
  8
LACOSTE
  6
CONTINUOUS
 62
     7
100
AcDbLine
 10
6.38434834764353
 20
13.2722871416641
 30
0.0
 11
6.385857304209334
 21
13.27381607101928
 31
0.0
  0
LINE
  5
1D3
100
AcDbEntity
  8
LACOSTE
  6
CONTINUOUS
 62
     7
100
AcDbLine
 10
6.536353657570458
 20
12.98832477117269
 30
0.0
 11
6.537862614136255
 21
12.98985370052785
 31
0.0
  0
LINE
  5
1D4
100
AcDbEntity
  8
LACOSTE
  6
CONTINUOUS
 62
     7
100
AcDbLine
 10
6.699064336248472
 20
12.73643375982501
 30
0.0
 11
6.700573292814279
 21
12.73796268918019
 31
0.0
  0
LINE
  5
1D5
100
AcDbEntity
  8
LACOSTE
  6
CONTINUOUS
 62
     7
100
AcDbLine
 10
6.048221621536402
 20
13.74399780521569
 30
0.0
 11
6.049730578102199
 21
13.74552673457086
 31
0.0
  0
LINE
  5
1D6
100
AcDbEntity
  8
LACOSTE
  6
CONTINUOUS
 62
     7
100
AcDbLine
 10
6.019271130532011
 20
13.19155729237443
 30
0.0
 11
6.136107713713766
 21
13.30983930253412
 31
0.0
  0
LINE
  5
1D7
100
AcDbEntity
  8
LACOSTE
  6
CONTINUOUS
 62
     7
100
AcDbLine
 10
5.967314976919091
 20
13.24526491289521
 30
0.0
 11
6.210932300214416
 21
13.49210679386802
 31
0.0
  0
LINE
  5
1D8
100
AcDbEntity
  8
LACOSTE
  6
CONTINUOUS
 62
     7
100
AcDbLine
 10
6.007729408180484
 20
13.18262688603488
 30
0.0
 11
6.335172034056913
 21
13.3036372556187
 31
0.0
  0
LINE
  5
1D9
100
AcDbEntity
  8
LACOSTE
  6
CONTINUOUS
 62
     7
100
AcDbLine
 10
6.136107713713766
 20
13.30983930253412
 30
0.0
 11
6.254042535932871
 21
13.42923313843739
 31
0.0
  0
ARC
  5
1DA
100
AcDbEntity
  8
LACOSTE
  6
CONTINUOUS
 62
     7
100
AcDbCircle
 10
5.990990606929663
 20
13.21618374126128
 30
0.0
 40
0.0375
100
AcDbArc
 50
129.1498033365673
 51
315.3522300000233
  0
LINE
  5
1DB
100
AcDbEntity
  8
LACOSTE
  6
CONTINUOUS
 62
     7
100
AcDbLine
 10
6.019271130532011
 20
13.19155729237443
 30
0.0
 11
6.017669621286209
 21
13.18983074915482
 31
0.0
  0
LINE
  5
1DC
100
AcDbEntity
  8
LACOSTE
  6
CONTINUOUS
 62
     7
100
AcDbLine
 10
6.293550657568967
 20
13.36807095291754
 30
0.0
 11
6.136107713713766
 21
13.30983930253412
 31
0.0
  0
LINE
  5
1DD
100
AcDbEntity
  8
LACOSTE
  6
CONTINUOUS
 62
     7
100
AcDbLine
 10
6.210932300214416
 20
13.49210679386802
 30
0.0
 11
6.212441256780209
 21
13.49363572322318
 31
0.0
  0
LINE
  5
1DE
100
AcDbEntity
  8
LACOSTE
  6
CONTINUOUS
 62
     7
100
AcDbLine
 10
6.181981809210043
 20
12.93966628102676
 30
0.0
 11
6.29881839239178
 21
13.05794829118645
 31
0.0
  0
LINE
  5
1DF
100
AcDbEntity
  8
LACOSTE
  6
CONTINUOUS
 62
     7
100
AcDbLine
 10
6.130025655597115
 20
12.99337390154755
 30
0.0
 11
6.373642978892434
 21
13.24021578252035
 31
0.0
  0
LINE
  5
1E0
100
AcDbEntity
  8
LACOSTE
  6
CONTINUOUS
 62
     7
100
AcDbLine
 10
6.170440086858508
 20
12.93073587468722
 30
0.0
 11
6.497882712734931
 21
13.05174624427103
 31
0.0
  0
LINE
  5
1E1
100
AcDbEntity
  8
LACOSTE
  6
CONTINUOUS
 62
     7
100
AcDbLine
 10
6.29881839239178
 20
13.05794829118645
 30
0.0
 11
6.416753214610888
 21
13.17734212708972
 31
0.0
  0
ARC
  5
1E2
100
AcDbEntity
  8
LACOSTE
  6
CONTINUOUS
 62
     7
100
AcDbCircle
 10
6.153701285607677
 20
12.96429272991361
 30
0.0
 40
0.0375
100
AcDbArc
 50
129.1498033365673
 51
315.3522300000233
  0
LINE
  5
1E3
100
AcDbEntity
  8
LACOSTE
  6
CONTINUOUS
 62
     7
100
AcDbLine
 10
6.181981809210043
 20
12.93966628102676
 30
0.0
 11
6.180380299964223
 21
12.93793973780714
 31
0.0
  0
LINE
  5
1E4
100
AcDbEntity
  8
LACOSTE
  6
CONTINUOUS
 62
     7
100
AcDbLine
 10
6.456261336246978
 20
13.11617994156987
 30
0.0
 11
6.29881839239178
 21
13.05794829118645
 31
0.0
  0
LINE
  5
1E5
100
AcDbEntity
  8
LACOSTE
  6
CONTINUOUS
 62
     7
100
AcDbLine
 10
6.373642978892434
 20
13.24021578252035
 30
0.0
 11
6.375151935458237
 21
13.24174471187552
 31
0.0
  0
LINE
  5
1E6
100
AcDbEntity
  8
LACOSTE
  6
CONTINUOUS
 62
     7
100
AcDbLine
 10
6.344692487888057
 20
12.68777526967909
 30
0.0
 11
6.461529071069794
 21
12.80605727983878
 31
0.0
  0
LINE
  5
1E7
100
AcDbEntity
  8
LACOSTE
  6
CONTINUOUS
 62
     7
100
AcDbLine
 10
6.292736334275133
 20
12.74148289019988
 30
0.0
 11
6.536353657570458
 21
12.98832477117269
 31
0.0
  0
LINE
  5
1E8
100
AcDbEntity
  8
LACOSTE
  6
CONTINUOUS
 62
     7
100
AcDbLine
 10
6.333150765536526
 20
12.67884486333954
 30
0.0
 11
6.660593391412941
 21
12.79985523292336
 31
0.0
  0
LINE
  5
1E9
100
AcDbEntity
  8
LACOSTE
  6
CONTINUOUS
 62
     7
100
AcDbLine
 10
6.461529071069794
 20
12.80605727983878
 30
0.0
 11
6.579463893288902
 21
12.92545111574205
 31
0.0
  0
ARC
  5
1EA
100
AcDbEntity
  8
LACOSTE
  6
CONTINUOUS
 62
     7
100
AcDbCircle
 10
6.316411964285702
 20
12.71240171856594
 30
0.0
 40
0.0375
100
AcDbArc
 50
129.1498033365673
 51
315.3522300000233
  0
LINE
  5
1EB
100
AcDbEntity
  8
LACOSTE
  6
CONTINUOUS
 62
     7
100
AcDbLine
 10
6.344692487888057
 20
12.68777526967909
 30
0.0
 11
6.343090978642251
 21
12.68604872645948
 31
0.0
  0
LINE
  5
1EC
100
AcDbEntity
  8
LACOSTE
  6
CONTINUOUS
 62
     7
100
AcDbLine
 10
6.618972014925009
 20
12.8642889302222
 30
0.0
 11
6.461529071069794
 21
12.80605727983878
 31
0.0
  0
LINE
  5
1ED
100
AcDbEntity
  8
LACOSTE
  6
CONTINUOUS
 62
     7
100
AcDbLine
 10
6.536353657570458
 20
12.98832477117269
 30
0.0
 11
6.537862614136255
 21
12.98985370052785
 31
0.0
  0
LINE
  5
1EE
100
AcDbEntity
  8
LACOSTE
  6
CONTINUOUS
 62
     7
100
AcDbLine
 10
6.507403166566074
 20
12.43588425833142
 30
0.0
 11
6.624239749747825
 21
12.55416626849111
 31
0.0
  0
LINE
  5
1EF
100
AcDbEntity
  8
LACOSTE
  6
CONTINUOUS
 62
     7
100
AcDbLine
 10
6.455447012953158
 20
12.48959187885222
 30
0.0
 11
6.699064336248472
 21
12.73643375982501
 31
0.0
  0
LINE
  5
1F0
100
AcDbEntity
  8
LACOSTE
  6
CONTINUOUS
 62
     7
100
AcDbLine
 10
6.495861444214551
 20
12.42695385199188
 30
0.0
 11
6.823304070090959
 21
12.54796422157569
 31
0.0
  0
LINE
  5
1F1
100
AcDbEntity
  8
LACOSTE
  6
CONTINUOUS
 62
     7
100
AcDbLine
 10
6.624239749747825
 20
12.55416626849111
 30
0.0
 11
6.742174571966916
 21
12.67356010439438
 31
0.0
  0
ARC
  5
1F2
100
AcDbEntity
  8
LACOSTE
  6
CONTINUOUS
 62
     7
100
AcDbCircle
 10
6.479122642963719
 20
12.46051070721827
 30
0.0
 40
0.0375
100
AcDbArc
 50
129.1498033365673
 51
315.3522300000233
  0
LINE
  5
1F3
100
AcDbEntity
  8
LACOSTE
  6
CONTINUOUS
 62
     7
100
AcDbLine
 10
6.507403166566074
 20
12.43588425833142
 30
0.0
 11
6.505801657320265
 21
12.43415771511181
 31
0.0
  0
LINE
  5
1F4
100
AcDbEntity
  8
LACOSTE
  6
CONTINUOUS
 62
     7
100
AcDbLine
 10
6.781682693603023
 20
12.61239791887453
 30
0.0
 11
6.624239749747825
 21
12.55416626849111
 31
0.0
  0
LINE
  5
1F5
100
AcDbEntity
  8
LACOSTE
  6
CONTINUOUS
 62
     7
100
AcDbLine
 10
6.699064336248472
 20
12.73643375982501
 30
0.0
 11
6.700573292814279
 21
12.73796268918019
 31
0.0
  0
LINE
  5
1F6
100
AcDbEntity
  8
LACOSTE
  6
CONTINUOUS
 62
     7
100
AcDbLine
 10
6.224473478849223
 20
13.50423870213807
 30
0.0
 11
6.225982435415026
 21
13.50576763149324
 31
0.0
  0
LINE
  5
1F7
100
AcDbEntity
  8
LACOSTE
  6
CONTINUOUS
 62
     7
100
AcDbLine
 10
6.38434834764353
 20
13.2722871416641
 30
0.0
 11
6.385857304209334
 21
13.27381607101928
 31
0.0
  0
LINE
  5
1F8
100
AcDbEntity
  8
LACOSTE
  6
CONTINUOUS
 62
     7
100
AcDbLine
 10
6.536353657570458
 20
12.98832477117269
 30
0.0
 11
6.537862614136255
 21
12.98985370052785
 31
0.0
  0
LINE
  5
1F9
100
AcDbEntity
  8
LACOSTE
  6
CONTINUOUS
 62
     7
100
AcDbLine
 10
6.699064336248472
 20
12.73643375982502
 30
0.0
 11
6.700573292814279
 21
12.73796268918019
 31
0.0
  0
LINE
  5
1FA
100
AcDbEntity
  8
LACOSTE
  6
CONTINUOUS
 62
     7
100
AcDbLine
 10
6.86177501492649
 20
12.48454274847734
 30
0.0
 11
6.863283971492297
 21
12.48607167783252
 31
0.0
  0
LINE
  5
1FB
100
AcDbEntity
  8
LACOSTE
  6
CONTINUOUS
 62
     7
100
AcDbLine
 10
6.048221621536395
 20
13.7439978052157
 30
0.0
 11
6.049730578102199
 21
13.74552673457086
 31
0.0
  0
LINE
  5
1FC
100
AcDbEntity
  8
LACOSTE
  6
CONTINUOUS
 62
     7
100
AcDbLine
 10
6.210932300214416
 20
13.49210679386802
 30
0.0
 11
6.212441256780209
 21
13.49363572322318
 31
0.0
  0
LINE
  5
1FD
100
AcDbEntity
  8
LACOSTE
  6
CONTINUOUS
 62
     7
100
AcDbLine
 10
6.373642978892434
 20
13.24021578252035
 30
0.0
 11
6.375151935458237
 21
13.24174471187552
 31
0.0
  0
LINE
  5
1FE
100
AcDbEntity
  8
LACOSTE
  6
CONTINUOUS
 62
     7
100
AcDbLine
 10
6.536353657570458
 20
12.98832477117269
 30
0.0
 11
6.537862614136255
 21
12.98985370052785
 31
0.0
  0
LINE
  5
1FF
100
AcDbEntity
  8
LACOSTE
  6
CONTINUOUS
 62
     7
100
AcDbLine
 10
6.699064336248472
 20
12.73643375982502
 30
0.0
 11
6.700573292814279
 21
12.73796268918019
 31
0.0
  0
LINE
  5
200
100
AcDbEntity
  8
LACOSTE
  6
CONTINUOUS
 62
     7
100
AcDbLine
 10
6.859426109026948
 20
12.48247189540681
 30
0.0
 11
6.860935065592759
 21
12.48400082476198
 31
0.0
  0
LINE
  5
201
100
AcDbEntity
  8
LACOSTE
  6
CONTINUOUS
 62
     7
100
AcDbLine
 10
6.669273895910357
 20
12.18345132326839
 30
0.0
 11
6.786110479092108
 21
12.30173333342808
 31
0.0
  0
LINE
  5
202
100
AcDbEntity
  8
LACOSTE
  6
CONTINUOUS
 62
     7
100
AcDbLine
 10
6.617317742297434
 20
12.23715894378918
 30
0.0
 11
6.860935065592759
 21
12.48400082476198
 31
0.0
  0
LINE
  5
203
100
AcDbEntity
  8
LACOSTE
  6
CONTINUOUS
 62
     7
100
AcDbLine
 10
6.657732173558823
 20
12.17452091692884
 30
0.0
 11
6.985174799435245
 21
12.29553128651266
 31
0.0
  0
LINE
  5
204
100
AcDbEntity
  8
LACOSTE
  6
CONTINUOUS
 62
     7
100
AcDbLine
 10
6.786110479092108
 20
12.30173333342808
 30
0.0
 11
6.904045301311203
 21
12.42112716933134
 31
0.0
  0
LINE
  5
205
100
AcDbEntity
  8
LACOSTE
  6
CONTINUOUS
 62
     7
100
AcDbLine
 10
6.860935065592759
 20
12.48400082476198
 30
0.0
 11
6.862444022158555
 21
12.48552975411715
 31
0.0
  0
ARC
  5
206
100
AcDbEntity
  8
LACOSTE
  6
CONTINUOUS
 62
     7
100
AcDbCircle
 10
6.640993372308006
 20
12.20807777215524
 30
0.0
 40
0.0375
100
AcDbArc
 50
129.1498033365673
 51
315.3522300000233
  0
LINE
  5
207
100
AcDbEntity
  8
LACOSTE
  6
CONTINUOUS
 62
     7
100
AcDbLine
 10
6.669273895910357
 20
12.18345132326839
 30
0.0
 11
6.667672386664552
 21
12.18172478004878
 31
0.0
  0
LINE
  5
208
100
AcDbEntity
  8
LACOSTE
  6
CONTINUOUS
 62
     7
100
AcDbLine
 10
6.94355342294731
 20
12.3599649838115
 30
0.0
 11
6.786110479092108
 21
12.30173333342808
 31
0.0
  0
LINE
  5
209
100
AcDbEntity
  8
LACOSTE
  6
CONTINUOUS
 62
     7
100
AcDbLine
 10
6.831984574588382
 20
11.93156031192073
 30
0.0
 11
6.948821157770122
 21
12.04984232208041
 31
0.0
  0
LINE
  5
20A
100
AcDbEntity
  8
LACOSTE
  6
CONTINUOUS
 62
     7
100
AcDbLine
 10
6.780028420975448
 20
11.9852679324415
 30
0.0
 11
7.023645744270776
 21
12.23210981341431
 31
0.0
  0
LINE
  5
20B
100
AcDbEntity
  8
LACOSTE
  6
CONTINUOUS
 62
     7
100
AcDbLine
 10
6.820442852236851
 20
11.92262990558118
 30
0.0
 11
7.14788547811327
 21
12.04364027516499
 31
0.0
  0
LINE
  5
20C
100
AcDbEntity
  8
LACOSTE
  6
CONTINUOUS
 62
     7
100
AcDbLine
 10
6.948821157770122
 20
12.04984232208041
 30
0.0
 11
7.066755979989231
 21
12.16923615798368
 31
0.0
  0
LINE
  5
20D
100
AcDbEntity
  8
LACOSTE
  6
CONTINUOUS
 62
     7
100
AcDbLine
 10
7.199897601583611
 20
11.9923507103367
 30
0.0
 11
7.201406558149415
 21
11.99387963969186
 31
0.0
  0
ARC
  5
20E
100
AcDbEntity
  8
LACOSTE
  6
CONTINUOUS
 62
     7
100
AcDbCircle
 10
6.80370405098602
 20
11.95618676080757
 30
0.0
 40
0.0375
100
AcDbArc
 50
129.1498033365673
 51
315.3522300000233
  0
LINE
  5
20F
100
AcDbEntity
  8
LACOSTE
  6
CONTINUOUS
 62
     7
100
AcDbLine
 10
6.831984574588382
 20
11.93156031192073
 30
0.0
 11
6.830383065342566
 21
11.92983376870111
 31
0.0
  0
LINE
  5
210
100
AcDbEntity
  8
LACOSTE
  6
CONTINUOUS
 62
     7
100
AcDbLine
 10
7.10626410162532
 20
12.10807397246383
 30
0.0
 11
6.948821157770122
 21
12.04984232208041
 31
0.0
  0
LINE
  5
211
100
AcDbEntity
  8
LACOSTE
  6
CONTINUOUS
 62
     7
100
AcDbLine
 10
7.359772470377915
 20
11.76039914986273
 30
0.0
 11
7.361281426943712
 21
11.76192807921789
 31
0.0
  0
LINE
  5
212
100
AcDbEntity
  8
LACOSTE
  6
CONTINUOUS
 62
     7
100
AcDbLine
 10
7.511777780304832
 20
11.4764367793713
 30
0.0
 11
7.513286736870639
 21
11.47796570872648
 31
0.0
  0
LINE
  5
213
100
AcDbEntity
  8
LACOSTE
  6
CONTINUOUS
 62
     7
100
AcDbLine
 10
7.67448845898285
 20
11.22454576802363
 30
0.0
 11
7.675997415548653
 21
11.22607469737881
 31
0.0
  0
LINE
  5
214
100
AcDbEntity
  8
LACOSTE
  6
CONTINUOUS
 62
     7
100
AcDbLine
 10
7.023645744270776
 20
12.23210981341431
 30
0.0
 11
7.025154700836569
 21
12.23363874276948
 31
0.0
  0
LINE
  5
215
100
AcDbEntity
  8
LACOSTE
  6
CONTINUOUS
 62
     7
100
AcDbLine
 10
6.994695253266399
 20
11.67966930057305
 30
0.0
 11
7.11153183644814
 21
11.79795131073273
 31
0.0
  0
LINE
  5
216
100
AcDbEntity
  8
LACOSTE
  6
CONTINUOUS
 62
     7
100
AcDbLine
 10
6.942739099653476
 20
11.73337692109384
 30
0.0
 11
7.186356422948801
 21
11.98021880206665
 31
0.0
  0
LINE
  5
217
100
AcDbEntity
  8
LACOSTE
  6
CONTINUOUS
 62
     7
100
AcDbLine
 10
6.983153530914865
 20
11.6707388942335
 30
0.0
 11
7.310596156791287
 21
11.79174926381732
 31
0.0
  0
LINE
  5
218
100
AcDbEntity
  8
LACOSTE
  6
CONTINUOUS
 62
     7
100
AcDbLine
 10
7.11153183644814
 20
11.79795131073273
 30
0.0
 11
7.229466658667249
 21
11.91734514663601
 31
0.0
  0
ARC
  5
219
100
AcDbEntity
  8
LACOSTE
  6
CONTINUOUS
 62
     7
100
AcDbCircle
 10
6.966414729664048
 20
11.7042957494599
 30
0.0
 40
0.0375
100
AcDbArc
 50
129.1498033365673
 51
315.3522300000233
  0
LINE
  5
21A
100
AcDbEntity
  8
LACOSTE
  6
CONTINUOUS
 62
     7
100
AcDbLine
 10
6.994695253266399
 20
11.67966930057305
 30
0.0
 11
6.99309374402058
 21
11.67794275735343
 31
0.0
  0
LINE
  5
21B
100
AcDbEntity
  8
LACOSTE
  6
CONTINUOUS
 62
     7
100
AcDbLine
 10
7.268974780303349
 20
11.85618296111616
 30
0.0
 11
7.11153183644814
 21
11.79795131073273
 31
0.0
  0
LINE
  5
21C
100
AcDbEntity
  8
LACOSTE
  6
CONTINUOUS
 62
     7
100
AcDbLine
 10
7.186356422948801
 20
11.98021880206665
 30
0.0
 11
7.187865379514597
 21
11.98174773142181
 31
0.0
  0
LINE
  5
21D
100
AcDbEntity
  8
LACOSTE
  6
CONTINUOUS
 62
     7
100
AcDbLine
 10
7.157405931944417
 20
11.42777828922538
 30
0.0
 11
7.274242515126164
 21
11.54606029938507
 31
0.0
  0
LINE
  5
21E
100
AcDbEntity
  8
LACOSTE
  6
CONTINUOUS
 62
     7
100
AcDbLine
 10
7.1054497783315
 20
11.48148590974618
 30
0.0
 11
7.349067101626818
 21
11.72832779071898
 31
0.0
  0
LINE
  5
21F
100
AcDbEntity
  8
LACOSTE
  6
CONTINUOUS
 62
     7
100
AcDbLine
 10
7.145864209592883
 20
11.41884788288583
 30
0.0
 11
7.473306835469301
 21
11.53985825246965
 31
0.0
  0
LINE
  5
220
100
AcDbEntity
  8
LACOSTE
  6
CONTINUOUS
 62
     7
100
AcDbLine
 10
7.274242515126164
 20
11.54606029938507
 30
0.0
 11
7.392177337345259
 21
11.66545413528834
 31
0.0
  0
ARC
  5
221
100
AcDbEntity
  8
LACOSTE
  6
CONTINUOUS
 62
     7
100
AcDbCircle
 10
7.129125408342062
 20
11.45240473811223
 30
0.0
 40
0.0375
100
AcDbArc
 50
129.1498033365673
 51
315.3522300000233
  0
LINE
  5
222
100
AcDbEntity
  8
LACOSTE
  6
CONTINUOUS
 62
     7
100
AcDbLine
 10
7.157405931944417
 20
11.42777828922538
 30
0.0
 11
7.155804422698611
 21
11.42605174600576
 31
0.0
  0
LINE
  5
223
100
AcDbEntity
  8
LACOSTE
  6
CONTINUOUS
 62
     7
100
AcDbLine
 10
7.431685458981366
 20
11.60429194976849
 30
0.0
 11
7.274242515126164
 21
11.54606029938507
 31
0.0
  0
LINE
  5
224
100
AcDbEntity
  8
LACOSTE
  6
CONTINUOUS
 62
     7
100
AcDbLine
 10
7.349067101626818
 20
11.72832779071898
 30
0.0
 11
7.350576058192622
 21
11.72985672007415
 31
0.0
  0
LINE
  5
225
100
AcDbEntity
  8
LACOSTE
  6
CONTINUOUS
 62
     7
100
AcDbLine
 10
7.320116610622431
 20
11.17588727787771
 30
0.0
 11
7.436953193804182
 21
11.2941692880374
 31
0.0
  0
LINE
  5
226
100
AcDbEntity
  8
LACOSTE
  6
CONTINUOUS
 62
     7
100
AcDbLine
 10
7.268160457009518
 20
11.22959489839851
 30
0.0
 11
7.511777780304832
 21
11.4764367793713
 31
0.0
  0
LINE
  5
227
100
AcDbEntity
  8
LACOSTE
  6
CONTINUOUS
 62
     7
100
AcDbLine
 10
7.308574888270907
 20
11.16695687153817
 30
0.0
 11
7.636017514147329
 21
11.28796724112199
 31
0.0
  0
LINE
  5
228
100
AcDbEntity
  8
LACOSTE
  6
CONTINUOUS
 62
     7
100
AcDbLine
 10
7.436953193804182
 20
11.2941692880374
 30
0.0
 11
7.554888016023287
 21
11.41356312394067
 31
0.0
  0
ARC
  5
229
100
AcDbEntity
  8
LACOSTE
  6
CONTINUOUS
 62
     7
100
AcDbCircle
 10
7.29183608702008
 20
11.20051372676456
 30
0.0
 40
0.0375
100
AcDbArc
 50
129.1498033365673
 51
315.3522300000233
  0
LINE
  5
22A
100
AcDbEntity
  8
LACOSTE
  6
CONTINUOUS
 62
     7
100
AcDbLine
 10
7.320116610622431
 20
11.17588727787771
 30
0.0
 11
7.318515101376625
 21
11.17416073465809
 31
0.0
  0
LINE
  5
22B
100
AcDbEntity
  8
LACOSTE
  6
CONTINUOUS
 62
     7
100
AcDbLine
 10
7.594396137659391
 20
11.35240093842083
 30
0.0
 11
7.436953193804182
 21
11.2941692880374
 31
0.0
  0
LINE
  5
22C
100
AcDbEntity
  8
LACOSTE
  6
CONTINUOUS
 62
     7
100
AcDbLine
 10
7.511777780304832
 20
11.4764367793713
 30
0.0
 11
7.513286736870639
 21
11.47796570872648
 31
0.0
  0
LINE
  5
22D
100
AcDbEntity
  8
LACOSTE
  6
CONTINUOUS
 62
     7
100
AcDbLine
 10
7.482827289300455
 20
10.92399626653005
 30
0.0
 11
7.599663872482206
 21
11.04227827668973
 31
0.0
  0
LINE
  5
22E
100
AcDbEntity
  8
LACOSTE
  6
CONTINUOUS
 62
     7
100
AcDbLine
 10
7.430871135687532
 20
10.97770388705083
 30
0.0
 11
7.67448845898285
 21
11.22454576802363
 31
0.0
  0
LINE
  5
22F
100
AcDbEntity
  8
LACOSTE
  6
CONTINUOUS
 62
     7
100
AcDbLine
 10
7.471285566948925
 20
10.9150658601905
 30
0.0
 11
7.798728192825347
 21
11.03607622977432
 31
0.0
  0
LINE
  5
230
100
AcDbEntity
  8
LACOSTE
  6
CONTINUOUS
 62
     7
100
AcDbLine
 10
7.599663872482206
 20
11.04227827668973
 30
0.0
 11
7.717598694701305
 21
11.161672112593
 31
0.0
  0
ARC
  5
231
100
AcDbEntity
  8
LACOSTE
  6
CONTINUOUS
 62
     7
100
AcDbCircle
 10
7.454546765698108
 20
10.9486227154169
 30
0.0
 40
0.0375
100
AcDbArc
 50
129.1498033365673
 51
315.3522300000233
  0
LINE
  5
232
100
AcDbEntity
  8
LACOSTE
  6
CONTINUOUS
 62
     7
100
AcDbLine
 10
7.482827289300455
 20
10.92399626653005
 30
0.0
 11
7.481225780054653
 21
10.92226972331043
 31
0.0
  0
LINE
  5
233
100
AcDbEntity
  8
LACOSTE
  6
CONTINUOUS
 62
     7
100
AcDbLine
 10
7.757106816337408
 20
11.10050992707316
 30
0.0
 11
7.599663872482206
 21
11.04227827668973
 31
0.0
  0
LINE
  5
234
100
AcDbEntity
  8
LACOSTE
  6
CONTINUOUS
 62
     7
100
AcDbLine
 10
7.67448845898285
 20
11.22454576802363
 30
0.0
 11
7.675997415548653
 21
11.22607469737881
 31
0.0
  0
LINE
  5
235
100
AcDbEntity
  8
LACOSTE
  6
CONTINUOUS
 62
     7
100
AcDbLine
 10
7.199897601583611
 20
11.9923507103367
 30
0.0
 11
7.201406558149415
 21
11.99387963969186
 31
0.0
  0
LINE
  5
236
100
AcDbEntity
  8
LACOSTE
  6
CONTINUOUS
 62
     7
100
AcDbLine
 10
7.359772470377915
 20
11.76039914986273
 30
0.0
 11
7.361281426943712
 21
11.76192807921789
 31
0.0
  0
LINE
  5
237
100
AcDbEntity
  8
LACOSTE
  6
CONTINUOUS
 62
     7
100
AcDbLine
 10
7.511777780304832
 20
11.4764367793713
 30
0.0
 11
7.513286736870639
 21
11.47796570872648
 31
0.0
  0
LINE
  5
238
100
AcDbEntity
  8
LACOSTE
  6
CONTINUOUS
 62
     7
100
AcDbLine
 10
7.67448845898285
 20
11.22454576802363
 30
0.0
 11
7.675997415548653
 21
11.22607469737881
 31
0.0
  0
LINE
  5
239
100
AcDbEntity
  8
LACOSTE
  6
CONTINUOUS
 62
     7
100
AcDbLine
 10
7.023645744270776
 20
12.23210981341431
 30
0.0
 11
7.025154700836569
 21
12.23363874276948
 31
0.0
  0
LINE
  5
23A
100
AcDbEntity
  8
LACOSTE
  6
CONTINUOUS
 62
     7
100
AcDbLine
 10
7.186356422948801
 20
11.98021880206665
 30
0.0
 11
7.187865379514597
 21
11.98174773142181
 31
0.0
  0
LINE
  5
23B
100
AcDbEntity
  8
LACOSTE
  6
CONTINUOUS
 62
     7
100
AcDbLine
 10
7.349067101626818
 20
11.72832779071898
 30
0.0
 11
7.350576058192622
 21
11.72985672007415
 31
0.0
  0
LINE
  5
23C
100
AcDbEntity
  8
LACOSTE
  6
CONTINUOUS
 62
     7
100
AcDbLine
 10
7.511777780304832
 20
11.4764367793713
 30
0.0
 11
7.513286736870639
 21
11.47796570872648
 31
0.0
  0
LINE
  5
23D
100
AcDbEntity
  8
LACOSTE
  6
CONTINUOUS
 62
     7
100
AcDbLine
 10
7.67448845898285
 20
11.22454576802363
 30
0.0
 11
7.675997415548653
 21
11.22607469737881
 31
0.0
  0
LINE
  5
23E
100
AcDbEntity
  8
LACOSTE
  6
CONTINUOUS
 62
     7
100
AcDbLine
 10
8.122099024336829
 20
10.59533292359424
 30
0.0
 11
8.14054362869389
 21
11.18735750899251
 31
0.0
  0
LINE
  5
23F
100
AcDbEntity
  8
LACOSTE
  6
CONTINUOUS
 62
     7
100
AcDbLine
 10
8.047135396945744
 20
10.59766842533268
 30
0.0
 11
8.063846557985712
 21
11.13405391751628
 31
0.0
  0
ARC
  5
240
100
AcDbEntity
  8
LACOSTE
  6
CONTINUOUS
 62
     7
100
AcDbCircle
 10
8.103061814998344
 20
11.18852525986173
 30
0.0
 40
0.0375
100
AcDbArc
 50
358.2155196165311
 51
178.2155196165311
  0
ARC
  5
241
100
AcDbEntity
  8
LACOSTE
  6
CONTINUOUS
 62
     7
100
AcDbCircle
 10
8.084617210641283
 20
10.59650067446345
 30
0.0
 40
0.0375
100
AcDbArc
 50
178.2155196165311
 51
358.2155196165311
  0
LINE
  5
242
100
AcDbEntity
  8
LACOSTE
  6
CONTINUOUS
 62
     7
100
AcDbLine
 10
7.957915646650196
 20
11.094905872277
 30
0.0
 11
8.063846557985712
 21
11.13405391751628
 31
0.0
  0
LINE
  5
243
100
AcDbEntity
  8
LACOSTE
  6
CONTINUOUS
 62
     7
100
AcDbLine
 10
8.063846557985712
 20
11.13405391751628
 30
0.0
 11
8.065580001302794
 21
11.18969301073095
 31
0.0
  0
LINE
  5
244
100
AcDbEntity
  8
LACOSTE
  6
CONTINUOUS
 62
     7
100
AcDbLine
 10
5.849388903922378
 20
14.06138114273224
 30
0.0
 11
6.00857635774723
 21
14.12021078523492
 31
0.0
  0
LINE
  5
245
100
AcDbEntity
  8
LACOSTE
  6
CONTINUOUS
 62
     7
100
AcDbLine
 10
5.156110489428538
 20
14.5067908227041
 30
0.0
 11
5.399727812723849
 21
14.7536327036769
 31
0.0
  0
LINE
  5
246
100
AcDbEntity
  8
LACOSTE
  6
CONTINUOUS
 62
     7
100
AcDbLine
 10
5.40123676928966
 20
14.75516163303207
 30
0.0
 11
5.638907123469049
 21
14.9958517921625
 31
0.0
  0
ARC
  5
247
100
AcDbEntity
  8
LACOSTE
  6
CONTINUOUS
 62
     7
100
AcDbCircle
 10
5.665590490061322
 20
14.96950320686266
 30
0.0
 40
0.0375
100
AcDbArc
 50
315.3400246518794
 51
135.3616932741689
  0
LINE
  5
248
100
AcDbEntity
  8
LACOSTE
  6
CONTINUOUS
 62
     7
100
AcDbLine
 10
5.442845285416176
 20
14.69074784474885
 30
0.0
 11
5.692263890005655
 21
14.94314453209685
 31
0.0
  0
LINE
  5
249
100
AcDbEntity
  8
LACOSTE
  6
CONTINUOUS
 62
     7
100
AcDbLine
 10
5.813665200450131
 20
14.75213810509371
 30
0.0
 11
5.482346170078404
 21
14.62959686272642
 31
0.0
  0
ARC
  5
24A
100
AcDbEntity
  8
LACOSTE
  6
CONTINUOUS
 62
     7
100
AcDbCircle
 10
5.828301168739333
 20
14.71761219551499
 30
0.0
 40
0.0375
100
AcDbArc
 50
315.3400246518794
 51
135.3616932741689
  0
LINE
  5
24B
100
AcDbEntity
  8
LACOSTE
  6
CONTINUOUS
 62
     7
100
AcDbLine
 10
5.60555596409419
 20
14.43885683340118
 30
0.0
 11
5.85497456868368
 21
14.69125352074919
 31
0.0
  0
LINE
  5
24C
100
AcDbEntity
  8
LACOSTE
  6
CONTINUOUS
 62
     7
100
AcDbLine
 10
5.563947447967674
 20
14.5032706216844
 30
0.0
 11
5.801617802147077
 21
14.74396078081484
 31
0.0
  0
LINE
  5
24D
100
AcDbEntity
  8
LACOSTE
  6
CONTINUOUS
 62
     7
100
AcDbLine
 10
5.523967546566336
 20
14.56516316542757
 30
0.0
 11
5.683155000391185
 21
14.62399280793026
 31
0.0
  0
LINE
  5
24E
100
AcDbEntity
  8
LACOSTE
  6
CONTINUOUS
 62
     7
100
AcDbLine
 10
5.976375879128145
 20
14.50024709374603
 30
0.0
 11
5.645056848756428
 21
14.37770585137876
 31
0.0
  0
ARC
  5
24F
100
AcDbEntity
  8
LACOSTE
  6
CONTINUOUS
 62
     7
100
AcDbCircle
 10
5.991011847417361
 20
14.46572118416733
 30
0.0
 40
0.0375
100
AcDbArc
 50
315.3400246518794
 51
135.3616932741689
  0
LINE
  5
250
100
AcDbEntity
  8
LACOSTE
  6
CONTINUOUS
 62
     7
100
AcDbLine
 10
5.768266642772204
 20
14.18696582205351
 30
0.0
 11
6.017685247361697
 21
14.43936250940152
 31
0.0
  0
LINE
  5
251
100
AcDbEntity
  8
LACOSTE
  6
CONTINUOUS
 62
     7
100
AcDbLine
 10
5.726658126645691
 20
14.25137961033673
 30
0.0
 11
5.964328480825095
 21
14.49206976946716
 31
0.0
  0
LINE
  5
252
100
AcDbEntity
  8
LACOSTE
  6
CONTINUOUS
 62
     7
100
AcDbLine
 10
5.686678225244364
 20
14.31327215407991
 30
0.0
 11
5.845865679069216
 21
14.37210179658259
 31
0.0
  0
LINE
  5
253
100
AcDbEntity
  8
LACOSTE
  6
CONTINUOUS
 62
     7
100
AcDbLine
 10
6.139086557806173
 20
14.24835608239837
 30
0.0
 11
5.807767527434446
 21
14.12581484003109
 31
0.0
  0
LINE
  5
254
100
AcDbEntity
  8
LACOSTE
  6
CONTINUOUS
 62
     7
100
AcDbLine
 10
5.208066643041451
 20
14.4530832021833
 30
0.0
 11
5.324903226223202
 21
14.57136521234299
 31
0.0
  0
LINE
  5
255
100
AcDbEntity
  8
LACOSTE
  6
CONTINUOUS
 62
     7
100
AcDbLine
 10
5.196524920689931
 20
14.44415279584377
 30
0.0
 11
5.523967546566336
 21
14.56516316542757
 31
0.0
  0
LINE
  5
256
100
AcDbEntity
  8
LACOSTE
  6
CONTINUOUS
 62
     7
100
AcDbLine
 10
5.324903226223202
 20
14.57136521234299
 30
0.0
 11
5.442838048442297
 21
14.69075904824626
 31
0.0
  0
ARC
  5
257
100
AcDbEntity
  8
LACOSTE
  6
CONTINUOUS
 62
     7
100
AcDbCircle
 10
5.1797861194391
 20
14.47770965107015
 30
0.0
 40
0.0375
100
AcDbArc
 50
129.1498033365673
 51
315.3522300000233
  0
LINE
  5
258
100
AcDbEntity
  8
LACOSTE
  6
CONTINUOUS
 62
     7
100
AcDbLine
 10
5.208066643041451
 20
14.4530832021833
 30
0.0
 11
5.206465133795646
 21
14.45135665896369
 31
0.0
  0
LINE
  5
259
100
AcDbEntity
  8
LACOSTE
  6
CONTINUOUS
 62
     7
100
AcDbLine
 10
5.482346170078411
 20
14.62959686272643
 30
0.0
 11
5.324903226223202
 21
14.57136521234299
 31
0.0
  0
LINE
  5
25A
100
AcDbEntity
  8
LACOSTE
  6
CONTINUOUS
 62
     7
100
AcDbLine
 10
5.370777321719479
 20
14.20119219083564
 30
0.0
 11
5.487613904901227
 21
14.31947420099533
 31
0.0
  0
LINE
  5
25B
100
AcDbEntity
  8
LACOSTE
  6
CONTINUOUS
 62
     7
100
AcDbLine
 10
5.318821168106552
 20
14.25489981135643
 30
0.0
 11
5.562438491401866
 21
14.50174169232923
 31
0.0
  0
LINE
  5
25C
100
AcDbEntity
  8
LACOSTE
  6
CONTINUOUS
 62
     7
100
AcDbLine
 10
5.359235599367945
 20
14.19226178449609
 30
0.0
 11
5.686678225244364
 21
14.31327215407991
 31
0.0
  0
LINE
  5
25D
100
AcDbEntity
  8
LACOSTE
  6
CONTINUOUS
 62
     7
100
AcDbLine
 10
5.487613904901227
 20
14.31947420099533
 30
0.0
 11
5.605548727120325
 21
14.43886803689859
 31
0.0
  0
ARC
  5
25E
100
AcDbEntity
  8
LACOSTE
  6
CONTINUOUS
 62
     7
100
AcDbCircle
 10
5.342496798117128
 20
14.22581863972249
 30
0.0
 40
0.0375
100
AcDbArc
 50
129.1498033365673
 51
315.3522300000233
  0
LINE
  5
25F
100
AcDbEntity
  8
LACOSTE
  6
CONTINUOUS
 62
     7
100
AcDbLine
 10
5.370777321719479
 20
14.20119219083564
 30
0.0
 11
5.36917581247366
 21
14.19946564761602
 31
0.0
  0
LINE
  5
260
100
AcDbEntity
  8
LACOSTE
  6
CONTINUOUS
 62
     7
100
AcDbLine
 10
5.645056848756428
 20
14.37770585137876
 30
0.0
 11
5.487613904901227
 21
14.31947420099533
 31
0.0
  0
LINE
  5
261
100
AcDbEntity
  8
LACOSTE
  6
CONTINUOUS
 62
     7
100
AcDbLine
 10
5.533488000397493
 20
13.94930117948797
 30
0.0
 11
5.650324583579244
 21
14.06758318964766
 31
0.0
  0
LINE
  5
262
100
AcDbEntity
  8
LACOSTE
  6
CONTINUOUS
 62
     7
100
AcDbLine
 10
5.481531846784569
 20
14.00300880000876
 30
0.0
 11
5.725149170079884
 21
14.24985068098156
 31
0.0
  0
LINE
  5
263
100
AcDbEntity
  8
LACOSTE
  6
CONTINUOUS
 62
     7
100
AcDbLine
 10
5.521946278045959
 20
13.94037077314842
 30
0.0
 11
5.849388903922378
 21
14.06138114273224
 31
0.0
  0
LINE
  5
264
100
AcDbEntity
  8
LACOSTE
  6
CONTINUOUS
 62
     7
100
AcDbLine
 10
5.650324583579244
 20
14.06758318964766
 30
0.0
 11
5.768259405798339
 21
14.18697702555092
 31
0.0
  0
ARC
  5
265
100
AcDbEntity
  8
LACOSTE
  6
CONTINUOUS
 62
     7
100
AcDbCircle
 10
5.505207476795138
 20
13.97392762837482
 30
0.0
 40
0.0375
100
AcDbArc
 50
129.1498033365673
 51
315.3522300000233
  0
LINE
  5
266
100
AcDbEntity
  8
LACOSTE
  6
CONTINUOUS
 62
     7
100
AcDbLine
 10
5.533488000397493
 20
13.94930117948797
 30
0.0
 11
5.531886491151688
 21
13.94757463626836
 31
0.0
  0
LINE
  5
267
100
AcDbEntity
  8
LACOSTE
  6
CONTINUOUS
 62
     7
100
AcDbLine
 10
5.807767527434446
 20
14.12581484003108
 30
0.0
 11
5.650324583579244
 21
14.06758318964766
 31
0.0
  0
LINE
  5
268
100
AcDbEntity
  8
LACOSTE
  6
CONTINUOUS
 62
     7
100
AcDbLine
 10
8.084617210641283
 20
10.59650067446345
 30
0.0
 11
8.561379102758804
 21
9.85968684119094
 31
0.0
  0
LINE
  5
269
100
AcDbEntity
  8
STM-8
  6
CONTINUOUS
 62
     7
100
AcDbLine
 10
9.728974342649767
 20
8.094521550900873
 30
0.0
 11
9.539435379412026
 21
9.509745809742682
 31
0.0
  0
LINE
  5
26A
100
AcDbEntity
  8
LACOSTE
  6
CONTINUOUS
 62
     7
100
AcDbLine
 10
2.027162563907863
 20
19.95802149214239
 30
0.0
 11
2.66739075353011
 21
18.96857792636255
 31
0.0
  0
CIRCLE
  5
26B
100
AcDbEntity
  8
LACOSTE
  6
CONTINUOUS
 62
     7
100
AcDbCircle
 10
2.0
 20
20.0
 30
0.0
 40
0.05
  0
LINE
  5
26C
100
AcDbEntity
  8
LACOSTE
  6
CONTINUOUS
 62
     7
100
AcDbLine
 10
8.595178834808262
 20
9.768150811209441
 30
0.0
 11
8.64581538622184
 21
9.39006456065471
 31
0.0
  0
ARC
  5
26D
100
AcDbEntity
  8
LACOSTE
  6
CONTINUOUS
 62
     7
100
AcDbCircle
 10
8.588541666666669
 20
9.817708333333333
 30
0.0
 40
0.05
100
AcDbArc
 50
277.6281496685804
 51
122.9052429229888
  0
ARC
  5
26E
100
AcDbEntity
  8
LACOSTE
  6
CONTINUOUS
 62
     7
100
AcDbCircle
 10
8.588541666666669
 20
9.817708333333333
 30
0.0
 40
0.05
100
AcDbArc
 50
122.9052429229889
 51
277.6281496685804
  0
LWPOLYLINE
  5
26F
100
AcDbEntity
  8
LACOSTE
  6
CONTINUOUS
 62
     7
100
AcDbPolyline
 90
        4
 70
     1
 43
0.0
 10
2.686427962868592
 20
18.37538559009506
 10
2.704872567225653
 20
18.96741017549333
 42
0.9999999999999758
 10
2.629908939834566
 20
18.96974567723177
 10
2.611464335477513
 20
18.37772109183351
 42
0.9999999999999758
  0
LWPOLYLINE
  5
270
100
AcDbEntity
  8
LACOSTE
  6
CONTINUOUS
 62
     7
100
AcDbPolyline
 90
        2
 70
     0
 43
0.0
 10
2.688652629676131
 20
18.4467916999199
 10
3.194090439719261
 20
18.772831592304
  0
LWPOLYLINE
  5
271
100
AcDbEntity
  8
LACOSTE
  6
CONTINUOUS
 62
     7
100
AcDbPolyline
 90
        6
 70
     0
 43
0.0
 10
2.669287299550873
 20
18.34504956974072
 10
2.950209089483777
 20
18.52643332639896
 10
2.706591766188463
 20
18.27959144542616
 42
1.055645925795771
 10
2.756946410555578
 20
18.22415728168576
 10
2.75854791980139
 20
18.22588382490538
 10
2.875384502983127
 20
18.34416583506506
  0
LWPOLYLINE
  5
272
100
AcDbEntity
  8
LACOSTE
  6
CONTINUOUS
 62
     7
100
AcDbPolyline
 90
        4
 70
     0
 43
0.0
 10
2.951718046049588
 20
18.52796225575414
 10
3.189449689413074
 20
18.76884055299845
 42
-1.00021347310183
 10
3.242818965803866
 20
18.71614596047472
 10
2.875384502983127
 20
18.34416583506506
  0
LWPOLYLINE
  5
273
100
AcDbEntity
  8
LACOSTE
  6
CONTINUOUS
 62
     7
100
AcDbPolyline
 90
        2
 70
     0
 43
0.0
 10
3.364146477210059
 20
18.52493872781577
 10
2.875384502983127
 20
18.34416583506506
  0
LWPOLYLINE
  5
274
100
AcDbEntity
  8
LACOSTE
  6
CONTINUOUS
 62
     7
100
AcDbPolyline
 90
        2
 70
     0
 43
0.0
 10
2.747006197449856
 20
18.21695341856583
 10
3.233636277151124
 20
18.39679343065233
  0
LWPOLYLINE
  5
275
100
AcDbEntity
  8
LACOSTE
  6
CONTINUOUS
 62
     7
100
AcDbPolyline
 90
        4
 70
     0
 43
0.0
 10
3.156037240854114
 20
18.21165745612324
 10
3.405455845443596
 20
18.46405414347125
 42
1.000189112282293
 10
3.352099078907002
 20
18.5167614035369
 10
3.114428724727599
 20
18.27607124440647
  0
LWPOLYLINE
  5
276
100
AcDbEntity
  8
LACOSTE
  6
CONTINUOUS
 62
     7
100
AcDbPolyline
 90
        5
 70
     0
 43
0.0
 10
3.112919768161791
 20
18.27454231505129
 10
2.869302444866485
 20
18.0277004340785
 42
1.055645925795771
 10
2.919657089233595
 20
17.97226627033809
 10
2.921258598479404
 20
17.9739928135577
 10
3.038095181661155
 20
18.09227482371739
  0
LWPOLYLINE
  5
277
100
AcDbEntity
  8
LACOSTE
  6
CONTINUOUS
 62
     7
100
AcDbPolyline
 90
        2
 70
     0
 43
0.0
 10
3.038095181661155
 20
18.09227482371739
 10
3.526857155888084
 20
18.27304771646811
  0
LWPOLYLINE
  5
278
100
AcDbEntity
  8
LACOSTE
  6
CONTINUOUS
 62
     7
100
AcDbPolyline
 90
        2
 70
     0
 43
0.0
 10
2.90971687612787
 20
17.96506240721816
 10
3.396346955829141
 20
18.14490241930465
  0
LWPOLYLINE
  5
279
100
AcDbEntity
  8
LACOSTE
  6
CONTINUOUS
 62
     7
100
AcDbPolyline
 90
        4
 70
     0
 43
0.0
 10
3.318747919532142
 20
17.95976644477558
 10
3.568166524121624
 20
18.21216313212358
 42
1.000189112282293
 10
3.51480975758503
 20
18.26487039218923
 10
3.277139403405616
 20
18.02418023305879
  0
LWPOLYLINE
  5
27A
100
AcDbEntity
  8
LACOSTE
  6
CONTINUOUS
 62
     7
100
AcDbPolyline
 90
        4
 70
     0
 43
0.0
 10
3.48145859821016
 20
17.70787543342791
 10
3.730877202799652
 20
17.96027212077592
 42
1.000189112282293
 10
3.677520436263058
 20
18.01297938084157
 10
3.439850082083644
 20
17.77228922171113
  0
LWPOLYLINE
  5
27B
100
AcDbEntity
  8
LACOSTE
  6
CONTINUOUS
 62
     7
100
AcDbPolyline
 90
        5
 70
     0
 43
0.0
 10
3.438341125517833
 20
17.77076029235596
 10
3.194723802222513
 20
17.52391841138315
 42
1.055645925795771
 10
3.245078446589623
 20
17.46848424764275
 10
3.246679955835446
 20
17.47021079086237
 10
3.363516539017187
 20
17.58849280102205
  0
LWPOLYLINE
  5
27C
100
AcDbEntity
  8
LACOSTE
  6
CONTINUOUS
 62
     7
100
AcDbPolyline
 90
        4
 70
     0
 43
0.0
 10
3.64416927688817
 20
17.45598442208024
 10
3.893587881477666
 20
17.70838110942825
 42
1.000189112282293
 10
3.840231114941072
 20
17.7610883694939
 10
3.602560760761662
 20
17.52039821036346
  0
LWPOLYLINE
  5
27D
100
AcDbEntity
  8
LACOSTE
  6
CONTINUOUS
 62
     7
100
AcDbPolyline
 90
        5
 70
     0
 43
0.0
 10
3.601051804195861
 20
17.51886928100829
 10
3.357434480900541
 20
17.27202740003549
 42
1.055645925795771
 10
3.407789125267651
 20
17.21659323629508
 10
3.40939063451346
 20
17.2183197795147
 10
3.526227217695211
 20
17.33660178967439
  0
LWPOLYLINE
  5
27E
100
AcDbEntity
  8
LACOSTE
  6
CONTINUOUS
 62
     7
100
AcDbPolyline
 90
        5
 70
     0
 43
0.0
 10
3.763762482873879
 20
17.26697826966062
 10
3.520145159578559
 20
17.02013638868782
 42
1.055645925795771
 10
3.570499803945669
 20
16.96470222494741
 10
3.572101313191478
 20
16.96642876816703
 10
3.688937896373229
 20
17.08471077832672
  0
LWPOLYLINE
  5
27F
100
AcDbEntity
  8
LACOSTE
  6
CONTINUOUS
 62
     7
100
AcDbPolyline
 90
        4
 70
     0
 43
0.0
 10
3.806879955566198
 20
17.20409341073257
 10
4.05629856015568
 20
17.45649009808058
 42
1.000189112282293
 10
4.002941793619086
 20
17.50919735814623
 10
3.765271439439686
 20
17.26850719901579
  0
LWPOLYLINE
  5
280
102
{ACAD_REACTORS
330
281
102
}
100
AcDbEntity
  8
COMMON
  6
CONTINUOUS
 62
     7
100
AcDbPolyline
 90
        3
 70
     1
 43
0.0
 10
1.497631803165027
 20
16.51902740233031
 10
1.504279065093746
 20
16.6408938710235
 10
2.000607955771438
 20
16.54561645004519
  0
HATCH
  5
281
100
AcDbEntity
  8
COMMON
  6
CONTINUOUS
 62
     7
100
AcDbHatch
 10
0.0
 20
0.0
 30
0.0
210
0.0
220
0.0
230
1.0
  2
SOLID
 70
     1
 71
     1
 91
        1
 92
        1
 93
        3
 72
     1
 10
1.497631803165027
 20
16.51902740233031
 11
1.504279065093746
 21
16.6408938710235
 72
     1
 10
1.504279065093746
 20
16.6408938710235
 11
2.000607955771438
 21
16.54561645004519
 72
     1
 10
2.000607955771438
 20
16.54561645004519
 11
1.497631803165027
 21
16.51902740233031
 97
        1
330
280
 75
     0
 76
     1
 98
        1
 10
0.0
 20
0.0
  0
LWPOLYLINE
  5
282
102
{ACAD_REACTORS
330
283
102
}
100
AcDbEntity
  8
COMMON
  6
CONTINUOUS
 62
     7
100
AcDbPolyline
 90
        3
 70
     1
 43
0.0
 10
4.315559051265953
 20
17.34913104504733
 10
3.879432673192575
 20
17.1002198926835
 10
4.236843558638075
 20
17.4491209951422
  0
HATCH
  5
283
100
AcDbEntity
  8
COMMON
  6
CONTINUOUS
 62
     7
100
AcDbHatch
 10
0.0
 20
0.0
 30
0.0
210
0.0
220
0.0
230
1.0
  2
SOLID
 70
     1
 71
     1
 91
        1
 92
        1
 93
        3
 72
     1
 10
4.315559051265953
 20
17.34913104504733
 11
3.879432673192575
 21
17.1002198926835
 72
     1
 10
3.879432673192575
 20
17.1002198926835
 11
4.236843558638075
 21
17.4491209951422
 72
     1
 10
4.236843558638075
 20
17.4491209951422
 11
4.315559051265953
 21
17.34913104504733
 97
        1
330
282
 75
     0
 76
     1
 98
        1
 10
0.0
 20
0.0
  0
LWPOLYLINE
  5
284
100
AcDbEntity
  8
COMMON
  6
CONTINUOUS
 62
     7
100
AcDbPolyline
 90
        3
 70
     0
 43
0.0
 10
3.877759918007164
 20
17.09800739944347
 42
0.0542985503273094
 10
4.458478126403721
 20
17.57030276261556
 42
0.0279648327622866
 10
4.714268794693503
 20
17.85983919447342
  0
LWPOLYLINE
  5
285
102
{ACAD_REACTORS
330
286
102
}
100
AcDbEntity
  8
COMMON
  6
CONTINUOUS
 62
     7
100
AcDbPolyline
 90
        3
 70
     1
 43
0.0
 10
0.3131330238093533
 20
19.49933110833699
 10
0.2499999999999938
 20
20.0
 10
0.1860557130065309
 20
19.49933110833699
  0
HATCH
  5
286
100
AcDbEntity
  8
COMMON
  6
CONTINUOUS
 62
     7
100
AcDbHatch
 10
0.0
 20
0.0
 30
0.0
210
0.0
220
0.0
230
1.0
  2
SOLID
 70
     1
 71
     1
 91
        1
 92
        1
 93
        3
 72
     1
 10
0.3131330238093533
 20
19.49933110833699
 11
0.2499999999999938
 21
20.0
 72
     1
 10
0.2499999999999938
 20
20.0
 11
0.1860557130065309
 21
19.49933110833699
 72
     1
 10
0.1860557130065309
 20
19.49933110833699
 11
0.3131330238093533
 21
19.49933110833699
 97
        1
330
285
 75
     0
 76
     1
 98
        1
 10
0.0
 20
0.0
  0
LWPOLYLINE
  5
287
102
{ACAD_REACTORS
330
288
102
}
100
AcDbEntity
  8
COMMON
  6
CONTINUOUS
 62
     7
100
AcDbPolyline
 90
        3
 70
     1
 43
0.0
 10
0.3099953124315058
 20
9.001078148527797
 10
0.1813491459397597
 20
9.001078148527797
 10
0.2500000000000058
 20
8.5
  0
HATCH
  5
288
100
AcDbEntity
  8
COMMON
  6
CONTINUOUS
 62
     7
100
AcDbHatch
 10
0.0
 20
0.0
 30
0.0
210
0.0
220
0.0
230
1.0
  2
SOLID
 70
     1
 71
     1
 91
        1
 92
        1
 93
        3
 72
     1
 10
0.3099953124315058
 20
9.001078148527797
 11
0.1813491459397597
 21
9.001078148527797
 72
     1
 10
0.1813491459397597
 20
9.001078148527797
 11
0.2500000000000058
 21
8.5
 72
     1
 10
0.2500000000000058
 20
8.5
 11
0.3099953124315058
 21
9.001078148527797
 97
        1
330
287
 75
     0
 76
     1
 98
        1
 10
0.0
 20
0.0
  0
LWPOLYLINE
  5
289
102
{ACAD_REACTORS
330
28A
102
}
100
AcDbEntity
  8
COMMON
  6
CONTINUOUS
 62
     7
100
AcDbPolyline
 90
        3
 70
     1
 43
0.0
 10
0.3115641681204295
 20
7.998839030464867
 10
0.2500000000000058
 20
8.5
 10
0.1829180016286834
 20
7.998839030464867
  0
HATCH
  5
28A
100
AcDbEntity
  8
COMMON
  6
CONTINUOUS
 62
     7
100
AcDbHatch
 10
0.0
 20
0.0
 30
0.0
210
0.0
220
0.0
230
1.0
  2
SOLID
 70
     1
 71
     1
 91
        1
 92
        1
 93
        3
 72
     1
 10
0.3115641681204295
 20
7.998839030464867
 11
0.2500000000000058
 21
8.5
 72
     1
 10
0.2500000000000058
 20
8.5
 11
0.1829180016286834
 21
7.998839030464867
 72
     1
 10
0.1829180016286834
 20
7.998839030464867
 11
0.3115641681204295
 21
7.998839030464867
 97
        1
330
289
 75
     0
 76
     1
 98
        1
 10
0.0
 20
0.0
  0
LWPOLYLINE
  5
28B
102
{ACAD_REACTORS
330
28C
102
}
100
AcDbEntity
  8
LACOSTE
  6
CONTINUOUS
 62
     7
100
AcDbPolyline
 90
        3
 70
     1
 43
0.0
 10
2.488045815264007
 20
10.92256005498459
 10
2.502063642718288
 20
11.04872050207311
 10
1.999999999999997
 20
11.03420210990639
  0
HATCH
  5
28C
100
AcDbEntity
  8
LACOSTE
  6
CONTINUOUS
 62
     7
100
AcDbHatch
 10
0.0
 20
0.0
 30
0.0
210
0.0
220
0.0
230
1.0
  2
SOLID
 70
     1
 71
     1
 91
        1
 92
        1
 93
        3
 72
     1
 10
2.488045815264007
 20
10.92256005498459
 11
2.502063642718288
 21
11.04872050207311
 72
     1
 10
2.502063642718288
 20
11.04872050207311
 11
1.999999999999997
 21
11.03420210990639
 72
     1
 10
1.999999999999997
 20
11.03420210990639
 11
2.488045815264007
 21
10.92256005498459
 97
        1
330
28B
 75
     0
 76
     1
 98
        1
 10
0.0
 20
0.0
  0
LWPOLYLINE
  5
28D
102
{ACAD_REACTORS
330
28E
102
}
100
AcDbEntity
  8
LACOSTE
  6
CONTINUOUS
 62
     7
100
AcDbPolyline
 90
        3
 70
     1
 43
0.0
 10
4.401041205665226
 20
9.493406436755398
 10
4.280137443872064
 20
9.459237982335592
 10
4.484989617269366
 20
8.996997923453873
  0
HATCH
  5
28E
100
AcDbEntity
  8
LACOSTE
  6
CONTINUOUS
 62
     7
100
AcDbHatch
 10
0.0
 20
0.0
 30
0.0
210
0.0
220
0.0
230
1.0
  2
SOLID
 70
     1
 71
     1
 91
        1
 92
        1
 93
        3
 72
     1
 10
4.401041205665226
 20
9.493406436755398
 11
4.280137443872064
 21
9.459237982335592
 72
     1
 10
4.280137443872064
 20
9.459237982335592
 11
4.484989617269366
 21
8.996997923453873
 72
     1
 10
4.484989617269366
 20
8.996997923453873
 11
4.401041205665226
 21
9.493406436755398
 97
        1
330
28D
 75
     0
 76
     1
 98
        1
 10
0.0
 20
0.0
  0
LWPOLYLINE
  5
28F
102
{ACAD_REACTORS
330
290
102
}
100
AcDbEntity
  8
LACOSTE
  6
CONTINUOUS
 62
     7
100
AcDbPolyline
 90
        3
 70
     1
 43
0.0
 10
8.419902793550068
 20
8.112091294111559
 10
8.394056513459602
 20
8.238738066554843
 10
8.897719008018519
 20
8.271821626574086
  0
HATCH
  5
290
100
AcDbEntity
  8
LACOSTE
  6
CONTINUOUS
 62
     7
100
AcDbHatch
 10
0.0
 20
0.0
 30
0.0
210
0.0
220
0.0
230
1.0
  2
SOLID
 70
     1
 71
     1
 91
        1
 92
        1
 93
        3
 72
     1
 10
8.419902793550068
 20
8.112091294111559
 11
8.394056513459602
 21
8.238738066554843
 72
     1
 10
8.394056513459602
 20
8.238738066554843
 11
8.897719008018519
 21
8.271821626574086
 72
     1
 10
8.897719008018519
 20
8.271821626574086
 11
8.419902793550068
 21
8.112091294111559
 97
        1
330
28F
 75
     0
 76
     1
 98
        1
 10
0.0
 20
0.0
  0
LWPOLYLINE
  5
291
102
{ACAD_REACTORS
330
292
102
}
100
AcDbEntity
  8
LACOSTE
  6
CONTINUOUS
 62
     7
100
AcDbPolyline
 90
        3
 70
     1
 43
0.0
 10
2.813522246468061
 20
6.989245282735329
 10
2.787238819991286
 20
7.112777387176168
 10
2.309177341351849
 20
6.954113293240752
  0
HATCH
  5
292
100
AcDbEntity
  8
LACOSTE
  6
CONTINUOUS
 62
     7
100
AcDbHatch
 10
0.0
 20
0.0
 30
0.0
210
0.0
220
0.0
230
1.0
  2
SOLID
 70
     1
 71
     1
 91
        1
 92
        1
 93
        3
 72
     1
 10
2.813522246468061
 20
6.989245282735329
 11
2.787238819991286
 21
7.112777387176168
 72
     1
 10
2.787238819991286
 20
7.112777387176168
 11
2.309177341351849
 21
6.954113293240752
 72
     1
 10
2.309177341351849
 20
6.954113293240752
 11
2.813522246468061
 21
6.989245282735329
 97
        1
330
291
 75
     0
 76
     1
 98
        1
 10
0.0
 20
0.0
  0
LWPOLYLINE
  5
293
102
{ACAD_REACTORS
330
294
102
}
100
AcDbEntity
  8
LACOSTE
  6
CONTINUOUS
 62
     7
100
AcDbPolyline
 90
        3
 70
     1
 43
0.0
 10
14.6942162580804
 20
7.46836134232396
 10
14.6699546336403
 20
7.592702167579468
 10
15.17414921453752
 20
7.629253927312426
  0
HATCH
  5
294
100
AcDbEntity
  8
LACOSTE
  6
CONTINUOUS
 62
     7
100
AcDbHatch
 10
0.0
 20
0.0
 30
0.0
210
0.0
220
0.0
230
1.0
  2
SOLID
 70
     1
 71
     1
 91
        1
 92
        1
 93
        3
 72
     1
 10
14.6942162580804
 20
7.46836134232396
 11
14.6699546336403
 21
7.592702167579468
 72
     1
 10
14.6699546336403
 20
7.592702167579468
 11
15.17414921453752
 21
7.629253927312426
 72
     1
 10
15.17414921453752
 20
7.629253927312426
 11
14.6942162580804
 21
7.46836134232396
 97
        1
330
293
 75
     0
 76
     1
 98
        1
 10
0.0
 20
0.0
  0
LWPOLYLINE
  5
295
102
{ACAD_REACTORS
330
296
102
}
100
AcDbEntity
  8
LACOSTE
  6
CONTINUOUS
 62
     7
100
AcDbPolyline
 90
        3
 70
     1
 43
0.0
 10
3.180176045819062
 20
5.165832570909117
 10
2.674149214537518
 20
5.129253927312425
 10
3.156520961989965
 20
5.291993017997634
  0
HATCH
  5
296
100
AcDbEntity
  8
LACOSTE
  6
CONTINUOUS
 62
     7
100
AcDbHatch
 10
0.0
 20
0.0
 30
0.0
210
0.0
220
0.0
230
1.0
  2
SOLID
 70
     1
 71
     1
 91
        1
 92
        1
 93
        3
 72
     1
 10
3.180176045819062
 20
5.165832570909117
 11
2.674149214537518
 21
5.129253927312425
 72
     1
 10
2.674149214537518
 20
5.129253927312425
 11
3.156520961989965
 21
5.291993017997634
 72
     1
 10
3.156520961989965
 20
5.291993017997634
 11
3.180176045819062
 21
5.165832570909117
 97
        1
330
295
 75
     0
 76
     1
 98
        1
 10
0.0
 20
0.0
  0
LWPOLYLINE
  5
297
102
{ACAD_REACTORS
330
298
102
}
100
AcDbEntity
  8
COMMON
  6
CONTINUOUS
 62
     7
100
AcDbPolyline
 90
        3
 70
     1
 43
0.0
 10
0.3099953124315058
 20
3.498684614901033
 10
0.1844868573176072
 20
3.501822326278881
 10
0.2500000000000115
 20
3.0
  0
HATCH
  5
298
100
AcDbEntity
  8
COMMON
  6
CONTINUOUS
 62
     7
100
AcDbHatch
 10
0.0
 20
0.0
 30
0.0
210
0.0
220
0.0
230
1.0
  2
SOLID
 70
     1
 71
     1
 91
        1
 92
        1
 93
        3
 72
     1
 10
0.3099953124315058
 20
3.498684614901033
 11
0.1844868573176072
 21
3.501822326278881
 72
     1
 10
0.1844868573176072
 20
3.501822326278881
 11
0.2500000000000115
 21
3.0
 72
     1
 10
0.2500000000000115
 20
3.0
 11
0.3099953124315058
 21
3.498684614901033
 97
        1
330
297
 75
     0
 76
     1
 98
        1
 10
0.0
 20
0.0
  0
LWPOLYLINE
  5
299
102
{ACAD_REACTORS
330
29A
102
}
100
AcDbEntity
  8
STM-8
  6
CONTINUOUS
 62
     7
100
AcDbPolyline
 90
        3
 70
     1
 43
0.0
 10
2.505568099581857
 20
1.681088277196799
 10
1.999999999999999
 20
1.744589075108628
 10
2.500749471394449
 20
1.811191238256832
  0
HATCH
  5
29A
100
AcDbEntity
  8
STM-8
  6
CONTINUOUS
 62
     7
100
AcDbHatch
 10
0.0
 20
0.0
 30
0.0
210
0.0
220
0.0
230
1.0
  2
SOLID
 70
     1
 71
     1
 91
        1
 92
        1
 93
        3
 72
     1
 10
2.505568099581857
 20
1.681088277196799
 11
1.999999999999999
 21
1.744589075108628
 72
     1
 10
1.999999999999999
 20
1.744589075108628
 11
2.500749471394449
 21
1.811191238256832
 72
     1
 10
2.500749471394449
 20
1.811191238256832
 11
2.505568099581857
 21
1.681088277196799
 97
        1
330
299
 75
     0
 76
     1
 98
        1
 10
0.0
 20
0.0
  0
LWPOLYLINE
  5
29B
102
{ACAD_REACTORS
330
29C
102
}
100
AcDbEntity
  8
STM-8
  6
CONTINUOUS
 62
     7
100
AcDbPolyline
 90
        3
 70
     1
 43
0.0
 10
12.49996758255574
 20
1.681004231356321
 10
12.49996758255574
 20
1.807334468021561
 10
12.99999999999996
 20
1.744589075108628
  0
HATCH
  5
29C
100
AcDbEntity
  8
STM-8
  6
CONTINUOUS
 62
     7
100
AcDbHatch
 10
0.0
 20
0.0
 30
0.0
210
0.0
220
0.0
230
1.0
  2
SOLID
 70
     1
 71
     1
 91
        1
 92
        1
 93
        3
 72
     1
 10
12.49996758255574
 20
1.681004231356321
 11
12.49996758255574
 21
1.807334468021561
 72
     1
 10
12.49996758255574
 20
1.807334468021561
 11
12.99999999999996
 21
1.744589075108628
 72
     1
 10
12.99999999999996
 20
1.744589075108628
 11
12.49996758255574
 21
1.681004231356321
 97
        1
330
29B
 75
     0
 76
     1
 98
        1
 10
0.0
 20
0.0
  0
ENDSEC
  0
SECTION
  2
OBJECTS
  0
DICTIONARY
  5
C
100
AcDbDictionary
  3
ACAD_GROUP
350
D
  3
ACAD_MLINESTYLE
350
1B
  0
DICTIONARY
  5
D
102
{ACAD_REACTORS
330
C
102
}
100
AcDbDictionary
  0
DICTIONARY
  5
1B
102
{ACAD_REACTORS
330
C
102
}
100
AcDbDictionary
  3
STANDARD
350
1C
  0
MLINESTYLE
  5
1C
102
{ACAD_REACTORS
330
1B
102
}
100
AcDbMlineStyle
  2
STANDARD
 70
     0
  3

 62
   256
 51
90.0
 52
90.0
 71
     2
 49
0.5
 62
   256
  6
BYLAYER
 49
-0.5
 62
   256
  6
BYLAYER
  0
ENDSEC
  0
EOF
